Rancid - Radio Chords & Tabs

 

Radio Chords & Tabs

Rancid Chords & Tabs

Version: 1 Type: Bass Tab 0 ratings
1 star 2 stars 3 stars 4 stars 5 stars
comments

Radio Bass Tab

Rancid
Radio

Matt does this between a lot between verses and choruses:
G:------------------------------------7-5----------
D:----------------------------------------7-5------
A:0-2-0-3-0-4-0-2-0-3-0-4-0-2-0-3-4-0---------7-6--
E:-------------------------------------------------

Verse: (Repeat 3 more times)
G:----------------------------------------
D:----------------------------------------
A:5-5-5---------------3-3-4-4-4-5-5-5-5---
E:------5-7-7-7-7-5-3-------------------5-
[ Tab from: http://www.guitartabs.cc/tabs/r/rancid/radio_btab.html ]
"Here it is! Here I am..."
G:--5---------5---------5-7-8-8-7-5----------
D:7---5-5-5-7---5-5-5-7-------------7-5------
A:--------------------------------------7-6-5
E:-------------------------------------------

Chorus: (Verse is the second part of the chorus. Repeat whole thing 1)
G:7-7-7-6-5-4-4-4-7------------------
D:------------------5-5-5-7----------
A:--------------------------5-5-5-5--Verse...repeat
E:----------------------------------5

Guitar Solo: (Repeat both sides of * 3 more times)
G:--7-----------*---------------
D:----5-5-7-5-7-*---------------
A:5-------------*5-5-0-2-0-3-0-4
E:--------------*---------------

Last Chorus:(Repeat 3 times) 
D:-----------------------------5-5-5-5-6
A:5-3-2-0-2-2-2-2-----2-3-4-5-----------
E:----------------5-3-------------------

Figured out and written by Fidget (Bassist of Half Moon)

Comments