Rancid - Out Of Control Chords & Tabs

 

Out Of Control Chords & Tabs

Rancid Chords & Tabs

Version: 1 Type: Tab 0 ratings
1 star 2 stars 3 stars 4 stars 5 stars
comments

Out Of Control Tab

#----------------------------------PLEASE NOTE---------------------------------#
#This file is the author's own work and represents their interpretation of the #
#song. You may only use this file for private study, scholarship, or research. #
#------------------------------------------------------------------------------#

Song: Out of control
Artists: Rancid
Album: Indestructible

|----------------|
| x = palm muted |
|----------------|

During bass intro, both guitars play VERSE Guitar1 with feedback.

After bass intro...

INTRO/OUTRO

Both guitars play...

e|-------------------------------|
B|-------------------------------|
G|--5--5-5---------------6--6-6--|
D|--5--5-5--3--3-3--6-6--6--6-6--|
A|--3--3-3--3--3-3--6-6--4--4-4--|
E|----------1--1-1--4-4----------|


VERSE

Guitar1					Guitar2

e|--8-x-8--8-8-8-8--8-x-8-8-8--|	e|-------------------------------|
B|--8-x-8--8-8-8-8--8-x-8-8-8--|	B|-------------------------------|
G|-----------------------------|	G|--5--5-5---------------6--6-6--|
D|-----------------------------|	D|--x--x-x--3--3-3--6-6--x--x-x--|
A|-----------------------------|	A|--3--3-3--x--x-x--x-x--4--4-4--|
E|-----------------------------|	E|----------1--1-1--4-4----------|

[ Tab from: http://www.guitartabs.cc/tabs/r/rancid/out_of_control_tab.html ]
RIFF

Guitar1					Guitar2

e|----------------------|		e|-------------------|
B|----------------------|		B|-------------------|
G|--6-5~---5-4~---------|		G|--6-5---5-4--------|
D|----------------6-5~--|		D|--6-5---5-4---6-5--|
A|----------------------|		A|--4-3---3-2---6-5--|
E|----------------------|		E|--------------4-3--|


CHORUS

Guitar1					Guitar2

e|-------------------------------| x3	e|--------------------------------------| x3
B|-------------------------------|	B|--------------------------------------|
G|--------------5-5-5-5-5-5-5-5--|	G|---------------------5-5-5-5-5-5-5-5--|
D|--7-6~--------5-5-5-5-5-5-5-5--|	D|--7-6-6-6-6-6-6-6-6--5-5-5-5-5-5-5-5--|
A|--------------3-3-3-3-3-3-3-3--|	A|--7-6-6-6-6-6-6-6-6--3-3-3-3-3-3-3-3--|
E|-------------------------------|	E|--5-4-4-4-4-4-4-4-4-------------------|

...and then both guitars play...

e|--------------|
B|--------------|
G|--------------|
D|--6--------5--|
A|--6--------5--|
E|--4--------3--|


END

Both guitars play

e|-------|
B|-------|
G|---5---|
D|---5---|
A|---3---|
E|-------|


 
INTRO x8
VERSE x4
RIFF
VERSE x4
CHORUS
INTRO x4
VERSE x4
RIFF
VERSE x4
CHORUS
OUTRO x3
END


mc_call@email.it for questions and/or comments.
Comments