Rancid - Out Of Control Chords & Tabs

 

Out Of Control Chords & Tabs

Rancid Chords & Tabs

Version: 3 Type: Bass Tab 0 ratings
1 star 2 stars 3 stars 4 stars 5 stars
comments

Out Of Control Bass Tab

Rancid
Out Of Control
Tabbed by Daniel182

Please Rate This Tab!

Intro/Verse 1(00:03)
G|---------------|   |----------------|
D|---------------|   |----------------|
A|-3-xx------444-|x12|-3-33-------444-|x4
E|-----1xx-44----|   |-----1-11-44----|
                     pm................
Mid Verse(00:31)
G|---------------------------|
D|---------------------------|
A|-4-3333-3-2222-------------|x1
E|---------------4-333333333-|

Verse 1continued(00:35)
G|----------------|
D|----------------|
A|-3-33-------444-|x4
E|-----1-11-44----|
pm.................
Chorus(00:42)
G|----------------------|  |--------|
D|----------------------|  |--------|
A|----------------------|x3|--------|x1
E|-5-4444444-888888-5-4-|  |-4---3--|
[ Tab from: http://www.guitartabs.cc/tabs/r/rancid/out_of_control_btab_ver_3.html ]
Verse 2(00:56)
G|----------------|  |----------------|
D|----------------|  |----------------|
A|-3-33-------444-|x4|-3-33-------444-|x4
E|-----1-11-44----|  |-----1-11-44----|
                     pm................
Mid Verse(01:10)
G|---------------------------|
D|---------------------------|
A|-4-3333-3-2222-------------|x1
E|---------------4-333333333-|

Verse 2continued(01:14)
G|----------------|
D|----------------|
A|-3-33-------444-|x4
E|-----1-11-44----|
pm.................
Chorus(01:21)
G|----------------------|  |--------|
D|----------------------|  |--------|
A|----------------------|x3|--------|x1
E|-5-4444444-888888-5-4-|  |-4---3--|

Outro(01:35)        End On
G|----------------|  |---|
D|----------------|  |---|
A|-3-33-------444-|x3|-3-|x1
E|-----1-11-44----|  |---|

Thats It! Please Rate this tab
thanx
Comments