Rancid - Out Of Control Chords & Tabs

 

Out Of Control Chords & Tabs

Rancid Chords & Tabs

Version: 1 Type: Bass Tab 0 ratings
1 star 2 stars 3 stars 4 stars 5 stars
comments

Out Of Control Bass Tab

#----------------------------------PLEASE NOTE---------------------------------#
#This file is the author's own work and represents their interpretation of the #
#song. You may only use this file for private study, scholarship, or research. #
#------------------------------------------------------------------------------#

Song: Out of control
Artists: Rancid
Album: Indestructible
[ Tab from: http://www.guitartabs.cc/tabs/r/rancid/out_of_control_btab.html ]
INTRO & VERSE
G----------------------------
D----------------------------
A--3--3-3------------4--4-4--
E---------4--4-4-1-1---------

RIFF
G------------------------------------
D------------------------------------
A--4-3---3-2-------------------------
E--------------4-3--3-3-3-3-3-3-3-3--

CHORUS
G---------------------------------------(x3)---*-------------
D----------------------------------------------*-------------
A---------------------3-3-3-3-3-3-3-3----------*-------------
E--5-4--4-4-4-4-4-4-4--------------------------*---4------3--

END
G-----
D-----
A--3--
E-----

For questions: mc_call@email.it
Comments