Rancid - Olympia Wa Chords & Tabs

 

Olympia Wa Chords & Tabs

Rancid Chords & Tabs

Version: 2 Type: Tab 0 ratings
1 star 2 stars 3 stars 4 stars 5 stars
comments

Olympia Wa Tab

   
Band: Rancid
Song: Olympia, WA
Album: ...And Out Come the Wolves
Tabber: clark@theoddmenout.com

*= mute chord (usually mute-strum pattern)

Intro:
      (C)       (D)      (G)     x3                            x1 
e------3--3-3-3--3-3-3-3--3-3-3-3--|------0--0---0--0---0-0-0----|--------|
B--0-1-3--3-1-0--3-3-1-0--0-0-0-1--|--0-1------3------3-------3--|--3/8~--|
G----------------------------------|-----------------------------|--------|
D----------------------------------|-----------------------------|--------|
A----------------------------------|-----------------------------|--------|
E----------------------------------|-----------------------------|--------|
(         All this times two                                     )       

Verse 1:
G*                            C*
Hangin' out with Lars down on 6th street,
                      G*
He knew that I was in trouble
                            D*
I was feeling much like the devil,
                                           G*
There was something burnin' deep inside of me
                      C*
Ran into three Puerto Ricans
                           G*
These girls took us to the funhouse
         D*              G*              DDDDD
Where we played a lonely pinball machine 

Chorus:
C              D         G        C
Hangin' on the corner of 52nd and Broadway
C            D       G                       C
Cars passin' by, but none of them seem to go my way 
C        D            G                 C
New York City, well I wish I was on the highway
C* G*      D* 
  Back to Olympia...

Verse 2:
G*                          C*
I'm having a hard time understanding
                G*
It gets all too demanding
                       D*
She's all gone and I'm stranded
                                 G*
Something burning deep inside of me 
                    C*
All I know it's 4 o'clock, and
                       G*
She ain't never showed up
      D*                        G*               DDDDD    
And I watched a thousand people go home from work 
[ Tab from: http://www.guitartabs.cc/tabs/r/rancid/olympia_wa_tab_ver_2.html ]
Chorus x1

Solo:
e--15-15--15-15--15--15-18-18-18-18--15-15----------------------------|
B--15-15--15-15--15--15-17-17-17-17--15-15----------------------------|
G-------------------------------------------17-15-17-17b19r-17-15-----|
D-----------------------------------------------------------------17--|
A---------------------------------------------------------------------|
E---------------------------------------------------------------------|

e-----------15-15-15--15-15--15--15-18-18-18-18--15-15-------------------|
B-----------15-15-15--15-15--15--15-17-17-17-17--15-15-------------------|
G-----15-17---------------------------------------------17-15-17-17b19r--|
D--17--------------------------------------------------------------------|
A------------------------------------------------------------------------|
E------------------------------------------------------------------------|

e-----------------------------------------------------------------------|
B-----------------------------------------------------------------------|
G--17-15--------15-17-17b19-b19r-17-15-----------------15-17-17b19------|
D--------17--17------------------------17--17-17-17-17------------------|
A-----------------------------------------------------------------------|
E-----------------------------------------------------------------------|

e---------------------------------------------------------------|
B-----------------------15-15-15-15-15-15-15-15-15-15-15-15-----|
G--b19--b19-b19r-15-----------------------------------------17--|
D-------------------17------------------------------------------|
A---------------------------------------------------------------|
E---------------------------------------------------------------|

Verse 3:
G*                     C*
How many times will it take me,
             G*
Before I go crazy,
              D*
Before I lose everything?
                                 G*
Something burning deep inside of me 
                      C*
Ran into three Puerto Ricans
                           G*
Those girls took us to the funhouse
D*                G*       DDDDDD
I don't wanna be alone again

Chorus x1

Intro x1

End on G

That's it!  For suggestions, corrections, and requests, email me:
                         oddmenout4@yahoo.com
Comments