Rancid - Olympia Wa Chords & Tabs

 

Olympia Wa Chords & Tabs

Rancid Chords & Tabs

Version: 1 Type: Tab 0 ratings
1 star 2 stars 3 stars 4 stars 5 stars
comments

Olympia Wa Tab

Gtr 1                 3X ___________1st __________
e|--------333333330000---5535535553:----553553555333__8----------------------|
B|--0-1-3-333311110001-------------------------------------------------------|
G|---------------------------------------------------------------------------|
D|---------------------------------------------------------------------------|
A|---------------------------------------------------------------------------|
E|---------------------------------------------------------------------------|
[ Tab from: http://www.guitartabs.cc/tabs/r/rancid/olympia_wa_tab.html ]
Gtr 2
    PM ..1          3X 
e|---------------------------------------------------------------------------|
B|---------------------------------------------------------------------------|
G|----5----7-----------------------------------------------------------------|
D|----5----7-------5-----5-4-2-7---------------------------------------------|
A|--33--3-55--5-555-3-----3-2-0-5--------------------------------------------|
E|-------------333-----------------------------------------------------------|
  Verse:                                                                     
e|---------------------------------------------------------------------------|
B|---------------------------------------------------------------------------|
G|------------------5--------------7-------------5-----------7-------7-------|
D|--5---------------5-------5------7------5------5------5----7----5--7-------|
A|--5-------------33-3-///--5----55-5///--5----33-3///--5--55-5/--5--5//////-|
E|33-3////////////--------33-3//--------33-3///-------33-5/-----33-3/--------|3X
                                      
e|---------------------------------------------------------------------------|
B|---------------------------------------------------------------------------|
G|---------------------------------------------------------------------------|
D|:-5--------7-----------------5---------------------------------------------|
A|:-3///////-5///////-5--------3///////-:--3X--------------------------------|
E|-------------------3///////-----------:--3X--------------------------------|

e|---------------------------------------------------------------------------|
B|---------------------------------------------------------------------------|
G|---------------------------------------------------------------------------|
D|----5-----------7----------------------------------------------------------|
A|--33-3/---5---55-5///------:Back to verse----------------------------------|
E|--------33-3/--------------------------------------------------------------|

e|---------------------------------------------------------------------------|
B|---------------------------------------------------------------------------|
G|---------------------------------------------------------------------------|
D|----5---------5--------------7----------------7-------------------7--------|
A|5---3////-5---3////-3--------5///////:3-------5///////3-3-3-3-3-3-5////////|
E|3//-------3//-------1///////----------1///////--------1-1-1-1-1-1----------|
     Solo
e|-15--------18----15-------------------------15--------18----15-------------|
B|-15/-//-//-17///-15/------------------------15/-//-//-17///-15/------------|
G|--------------------17151717>15-------15-17---------------------17151717>15|
D|--------------------------------17-17--------------------------------------|
A|---------------------------------------------------------------------------|
E|---------------------------------------------------------------------------|

e|---------------------------------------------------------------------------|
B|-------151717>-17>-1715----------------------------------------------------|
G|---1717-----------------17////-15171517>-17>-17>-1715-19-------------------|
D|-------------------------------------------------------X-------------------|
A|------------------------------------------------------17/////////////------|
E|---------------------------------------------------------------------------|
Back 2 verse
Comments