Rancid - Old Friend Chords & Tabs

 

Old Friend Chords & Tabs

Rancid Chords & Tabs

Version: 5 Type: Bass Tab

Old Friend Bass Tab

   
Old Friend


Intro
G-----2--------------------------2-------------------|
D-------4--2--0--0-2-4-2-0----------4--2--0--2-------|
A--2--------------------------2--------------------0-|
E----------------------------------------------------|

G----2------------------------2--0--------------------|
D-------4--2--0--0-2-4-2-0-----------4--3--2--0-------|
A--2---------------------------------------------4--3-|
E-----------------------------------------------------|

G-----2--------------------------2-------------------|
D-------4--2--0--0-2-4-2-0----------4--2--0--2-------|
A--2--------------------------2--------------------0-|
E----------------------------------------------------|
[ Tab from: http://www.guitartabs.cc/tabs/r/rancid/old_friend_btab_ver_5.html ]
G----2------------------------2--0--------------------|
D-------4--2--0--0-2-4-2-0-----------4--3--2--0-------|
A--2---------------------------------------------4--3-|
E-----------------------------------------------------|


Chorus
G-------------------------------------------------|
D-------------------------------------------------|
A-0--4--2--0-----------4-----0--2--4--5--4--2--0--|
E-------------0--2--4-----2-----------------------|


Verse A
G------------------|
D---------4444-----|
A-----7777----5557-|
E-5555-------------|

Verse B
G------------------|
D-------------0002-|
A------------------|
E-555500002222-----|

Ending
G----------------|
D-------4--------|
A----7-----5-7---|
E-5------------5-|


INTRO
CHORUS X2
VERSE A X4
VERSE B X4
CHORUS X2
VERSE B X4
CHORUS X2
INTRO
CHORUS X2
VERSE B X4
CHORUS X2
VERSE B X3
ENDING


By Alister.