Rancid - Nihilism Chords & Tabs

 

Nihilism Chords & Tabs

Rancid Chords & Tabs

Version: 2 Type: Bass Tab 0 ratings
1 star 2 stars 3 stars 4 stars 5 stars
comments

Nihilism Bass Tab

#----------------------------------PLEASE NOTE---------------------------------#
#This file is the author's own work and represents their interpretation of the #
#song. You may only use this file for private study, scholarship, or research. #
#------------------------------------------------------------------------------#

Song: Nihilism
Artists: Rancid
Album: Let's go!

/ slide

Intro
G----------------------- end with ---
D-----5-----------------          --- 
A--7-----76--3-3--5-55--          ---
E-----------------------	  -0-

Verse Part1
G------|----------------------------------------
D------|------------2------------------2--------
A--8/--|------0-2-3---5-2-0------0-2-3---5-2----
E------|--1-3----------------3-4-------------3--
[ Tab from: http://www.guitartabs.cc/tabs/r/rancid/nihilism_btab_ver_2.html ]
Verse Part2
G--------------------------------------------------------------------------
D--------------------------------------------------------------------------
A-----------3-3-3-1--------1--3-3-21------------3-3-3-1--------1--3-3-3-3--
E--1-1-1-1-----------3-3-3----------3--1-1-1-1-----------3-3-3-------------

Chorus
G-------------------
D-------------------
A--7-7-7-6-5-5-5-6--
E-------------------

Interlude
G---------------------------------------
D-----------------3--5-5-5-3------------
A--------1--3-3-3-----------5--3-3-3-5--
E--3-3-3--------------------------------

Riff
G-------------------------------- end with ----
D--------------------------------	   ----
A-----------3--3-----------3--3--	   -/7-
E--1---1-1--------3---3-3--------	   ----
Comments