Rancid - Nihilism Chords & Tabs

 

Nihilism Chords & Tabs

Rancid Chords & Tabs

Version: 1 Type: Bass Tab 0 ratings
1 star 2 stars 3 stars 4 stars 5 stars
comments

Nihilism Bass Tab

Rancid
Nihilism

Intro:Repeat Until Verse (only guitar on 1st part of verse)
G:-------------
D:--5----------
A:7---7-6-5---5
E:----------8--

2nd part of verse:
G:------------------------------------Repeat once
D:----------2-----------------2-------
A:------2-3---5-2---------2-3---5-2---
E:1-3-5-----------5-3-4-5------------3
[ Tab from: http://www.guitartabs.cc/tabs/r/rancid/nihilism_btab.html ]
Chorus:
G:---------------------------------------------------------
D:---------------------------------------------------------
A:---------3-3-3-1-----1-3-3-2-1-----------3-3-3-1-----1-3-
E:-1-1-1-1---------3-3-----------3-1-1-1-1---------3-3-----

Shout "NIHILISM!" part:
G:-----------------
D:-----------------
A:-7-7-7-6-5-5-5-6-Repeat 3 more times
E:-----------------

Instruments only part:
G:------------------------------------
D:-----------------3-5-5-5-3----------
A:-------1-3-3-3-3-----------5-3-3-3-5Repeat once
E:-3-3-3------------------------------

Part where Lars is singing Nihilism and Tim is singing:
G:-------------------
D:-------------------
A:------3-3-------3-3
E:1-1-1-----3-3-3----

Figured out and written by Fidget (bassist of Half Moon)

Comments