Rancid - Maxwell Murder Chords & Tabs

 

Maxwell Murder Chords & Tabs

Rancid Chords & Tabs

Version: 7 Type: Bass Tab 0 ratings
1 star 2 stars 3 stars 4 stars 5 stars
comments

Maxwell Murder Bass Tab

Rancid -> Maxwell Murder (Bass Solo)

Bass Solo:

G:-5-55-55-55-----------------------------
D:--7--7--7--76530567-5-0-3-5-------------
A:---------------------------0-345--------
E:----------------------------------------
[ Tab from: http://www.guitartabs.cc/tabs/r/rancid/maxwell_murder_btab_ver_7.html ]
G:----5h7-5--------------------------9h10-11h12---------------------
D:35-7-----7-35-3-------2-0--10h12h10----------12-11-12-10-12-11-12-
A:---------------530-3h4--------------------------------------------
E:------------------------------------------------------------------

G:19-17-16-15-014-12---11-10-9--------
D:----------------------------12-10---
A:------------------------------------
E:------------------------------------



Luiz Manzano (Brasil)
Comments