Rancid - Maxwell Murder Chords & Tabs

 

Maxwell Murder Chords & Tabs

Rancid Chords & Tabs

Version: 6 Type: Bass Tab 0 ratings
1 star 2 stars 3 stars 4 stars 5 stars
comments

Maxwell Murder Bass Tab

   
Song: Maxwell Murders
Band: Rancid
Tabber: 5XFast

I have seen a lot of tabs for this song,All of them are pretty far off,
even the 5 Star tab on Mxtabs is wrong, this is closer than those, trust me.

Verse 1
G|-------------------------------------------------|
D|-------------------------------------------------|
A|--345--------3----------345--------3----------34-|
E|-5------------------3--5------------------3--5---|

Pre-Chorus
G|------------------------------------------------------------------|
D|-------------------2-3-4-5-3-2-0----------------------------------|
A|-5-5555555-555555-3--------------5-5555555-555555-3-2-0-2---2-5-7-|
E|----------------------------------------------------------3-------|

Chorus
G|-----------------------------------------------------|
D|----------7-5-4-----4-5-7----------7-5-4-------------|
A|-87878787-------7-5-------87878787-------7--5--------|
E|-----------------------------------------------8--7--|

G|-----------------------------------------------------------------|
D|----------7-5-4--------------------------------------------------|
A|-87878787-------7-5-55-55-5--5-555555----------------------------|
E|--------------------------------------5-555555-1-111111-5-555555-|

Verse 2
G|----------------------------------------------|
D|----------------------------------------------|
A|-5--------3----------345--------3----------34-|
E|-----------------3--5------------------3--5---|

Pre-Chorus
G|------------------------------------------------------------------|
D|-------------------2-3-4-5-3-2-0----------------------------------|
A|-5-5555555-555555-3--------------5-5555555-555555-3-2-0-2---2-5-7-|
E|----------------------------------------------------------3-------|
[ Tab from: http://www.guitartabs.cc/tabs/r/rancid/maxwell_murder_btab_ver_6.html ]
Chorus
G|-----------------------------------------------------|
D|----------7-5-4-----4-5-7----------7-5-4-------------|
A|-87878787-------7-5-------87878787-------7--5--------|
E|-----------------------------------------------8--7--|

G|-----------------------------------------------------------------|
D|----------7-5-4--------------------------------------------------|
A|-87878787-------7-5-55-55-5--5-555555----------------------------|
E|--------------------------------------5-555555-1-111111-5-555555-|

Bass Solo
G|-555-555-555-555--5---------------------|
D|----7---7---7---7---765-567--55-33-55-0-|
A|-----------------------8----------------|
E|----------------------------------------|

G|-------------575-------------------------------|
D|----44-55-77-----7653---55-33------------------|
A|-5----------------------------55-33---22-33-45-|
E|------------------------------------5----------|

G|-----------------------15------15h17p15--15---------|
D|-0-0-12---1215--12-1517--171517--------17--1715-----|
A|--------15-------------------------------------1715-|
E|----------------------------------------------------|

G|------------------|
D|------------------|
A|-1715171517151617-|
E|------------------|

G|---19---17---161514---------------------|
D|----------------------17---161514-------|
A|-0----0----0--------0----0-------171615-|
E|----------------------------------------|

Chorus
G|-----------------------------------------------------|
D|----------7-5-4-----4-5-7----------7-5-4-------------|
A|-87878787-------7-5-------87878787-------7--5--------|
E|-----------------------------------------------8--7--|

G|-----------------------------------------------------------------|
D|----------7-5-4--------------------------------------------------|
A|-87878787-------7-5-55-55-5--5-555555----------------------------|
E|--------------------------------------5-555555-1-111111-5-555555-|

End On A D
G|----|
D|----|
A|-5\-|
E|----|
Comments