Rancid - Maxwell Murder Chords & Tabs

 

Maxwell Murder Chords & Tabs

Rancid Chords & Tabs

Version: 3 Type: Bass Tab 0 ratings
1 star 2 stars 3 stars 4 stars 5 stars
comments

Maxwell Murder Bass Tab

    From: robin@kwic.com (.)
    To: dwm3@po.cwru.edu
    Subject: basstabs
    Date: Sat, 11 Jan
[ Tab from: http://www.guitartabs.cc/tabs/r/rancid/maxwell_murder_btab_ver_3.html ]
    
    Bass Tabliture for the Maxwell Murder BASS SOLO!!!:
    G:5-5-2-2-5-5-2-2-5-5-2-2-5-5-2-2-5------------------------------
    D:----------------------------------7-6-5---5-6-7-5--------------
    A:----------------------------------------8---------8-7-6-5------
    E:----------------------------------------------------------8-6-5
    Continued:
    G:------------5-6-7-6-5-4-------------------------------------
    D:------5-6-7-------------7-6-5-4-5-3-------3-----------------
    A:5-5-8-------------------------------5-3-5---5-3-------3--4--
    E:------------------------------------------------5---5-------
    Continued:
    G:--------------------------------15-------------15------------------
    D:--12-12--12-11-10-15--15-15--17----17-15-16-17----17-16-15-12-11-11
    A:5------------------------------------------------------------------
    E:-------------------------------------------------------------------
    Continued:
    G:--------------------19----18----17----16----15----14-12-10-9-8-7--------
    D:12-12-11-11-12-12-0-----0-----0-----0-----0-----0----------------0-0-2-2
    A:------------------------------------------------------------------------
    E:------------------------------------------------------------------------
    Intro: Repeat 3 more times
    
    
Comments