Rancid - Maxwell Murder Chords & Tabs

 

Maxwell Murder Chords & Tabs

Rancid Chords & Tabs

Version: 2 Type: Bass Tab 0 ratings
1 star 2 stars 3 stars 4 stars 5 stars
comments

Maxwell Murder Bass Tab

artist: RANCID
song:   MAXWELL MURDER

Verse
G-------------------------------------------->
D-------------------------------------------->
A----034-5-------3----0345-------3----0345--->
E--------------------3---------------3------->
> verse >  *=play 6 times
>-----------------------------------------------------------------------|
>------*--------*-------2-3-4-5-3-2------*--------*-------------------0-|
>---5-5------5-5------3-------------3-5-5------5-5------3322002200--3---|
>-----------------------------------------------------------------33----|
[ Tab from: http://www.guitartabs.cc/tabs/r/rancid/maxwell_murder_btab_ver_2.html ]
Chorus #  !All notes x2!   @=single note
G-------------------2-0---------0-2-----------------2-0------@---------->
D---3-2-3-2-3-2-3-2-----3-2-0-3-----3-2-3-2-3-2-3-2-----3-2-0----@---@-->
A---------------------------------------------------------------3---2--->
E----------------------------------------------------------------------->
> chorus >  *=play 8 times 
>-------------------2-0-----------------------------------|
>---3-2-3-2-3-2-3-2-----3-2--*----*----*---------*--------|
>---------------------------5----5----0-----*---0---------|
>------------------------------------------1--------------|

Solo   !All notes x2!  
G----------------------------0----0--2-0--------------5--7-->
D---10-7-10-7-10-7-10-7-10-7----3---------3-0--3-5--7------->
A----------------------------------------------------------->
E----------------------------------------------------------->
> solo >  @=single note
>---10-7-------0------------------------10----10-(12131415)->
>---------10-7----3-0--------0--10-12-10-@-12-------Slide--->
>----------------------3-0-3-----------@-----------Quickly-->
>----------------------------------------------------------->
> solo >
>---14-13-12-13-12-10------19--17--16--15--14--13-12-11-10-9-8-------|
>---------------------10-0----0---0---0---0---0-------------------0--|
>------------------------@--@-@-@-@-@-@-@-@-@-@-@--@--@--@-@-@--3----|
>--------------------------------------------------------------------|

End on A---5----

HAVE FUN!!!!
Comments