Rancid - Maxwell Murder Chords & Tabs

 

Maxwell Murder Chords & Tabs

Rancid Chords & Tabs

Version: 1 Type: Bass Tab 5 ratings
1 star 2 stars 3 stars 4 stars 5 stars
comments

Maxwell Murder Bass Tab

   
Your submission form isn't working so here ya go These are all by Rancid

Maxwell Murder:
Verse:
G|-----------------------------|
D|-----------------------------|
A|-0-3-4-5-R-3-R-0-3-4-5-R-3-0-|
E|-----------------------------|

Pre-Chorus:
G|-------------------------------|
D|-----------------2-3-5-5-3-2---|
A|-5-5-5-5-5-5-5-3-------------3-|
E|-------------------------------|


G|-----------------------------------|
D|----------------5-3-2--------------|
A|-5-5-5-5-5-5-5-3-------3-5-3-2---2-|
E|-------------------------------3---|

Chorus:
G|-----------------------------| |
D|-----------------7-5-4---5-4-|*|
A|-8-7-8-7-8-7-8-7-------5-----|*|
E|-----------------------------| |
[ Tab from: http://www.guitartabs.cc/tabs/r/rancid/maxwell_murder_btab.html ]
G|---------------------------|
D|---------7-7-7-7-----------|
A|-8-8-8-5---------3-3-3---5-|
E|-----------------------3---|

Bass Solo:
G|-7-5-0-7-5-0-7-5-0-7-5-0-7p5-------------5h7p5-----|
D|-----------------------------7p5---------------7-5-|
A|---------------------------------7p5------------------|
E|-------------------------------------7p5--------------|

G|-------------5h7-9p7---------------------------|
D|---------5h7---------9p7-----------------------|
A|-----5h7-----------------9p7-----9-7-------7---|
E|-5h7-------------------------9p7-----9-7-5---5-|

G|-12p10----12p10----12p10----12p10----|
D|-------12-------12-------12-------12-|
A|-------------------------------------|
E|-------------------------------------|

G|-17-15-13-12--------------------------|
D|-------------15-13-12-----------------|
A|----------------------15-13-12-10-8-7-|
E|--------------------------------------|

- Adam

Comments