Rancid - Lock Step Gone Chords & Tabs

 

Lock Step Gone Chords & Tabs

Rancid Chords & Tabs

Version: 1 Type: Tab

Lock Step Gone Tab

   
Band: Rancid

Song: Lock Step & Gone

Tabbed By: Bon Scott(Fredrik)

Intro And Verse:

e|-----------------|
B|-----------------|
G|-----------------|
D|-6-6-11-11-11-6--| x8
A|-4-4-9--9--9--4--|
E|-----------------|

Chorus:

e|--------------|     |--------------------------------------|
B|--------------|     |--------------------------------------|
G|-66-----------|     |--66----------------------------------|
D|-66-22-66-44--| x3  |--66-44-66-44-------------------------|
A|-44-22-66-44--|     |--44-44-66-44-------------------------|
E|----00-44-22--|     |-----22-44-22-------------------------|

Verse:
[ Tab from: http://www.guitartabs.cc/tabs/r/rancid/lock_step_gone_tab.html ]
e|-----------------|
B|-----------------|
G|-----------------|
D|-6-6-11-11-11-6--| x4
A|-4-4-9--9--9--4--|
E|-----------------|


Solo: (Guitar 2 plays chorus in background)

e|----------------------|------------------------------------|
B|----------------------|-----------------7-9-7-6------------|
G|-12/13-13-13-13-13-13-|-6-9-6-9-6-9-6-9--------------------|
D|----------------------|------------------------------------|
A|----------------------|------------------------------------|
E|----------------------|------------------------------------|

Chorus

Verse:

e|---------------------------|
B|---------------------------|
G|---------------------------|
D|-6-6-11-11-11-6--(Let Ring)| x8
A|-4-4-9--9--9--4--(Let Ring)|
E|---------------------------|

End:

e|---|
B|---|
G|-6-|
D|-6-|
A|-4-|
E|---|