Rancid - Lock Step And Gone Chords & Tabs

 

Lock Step And Gone Chords & Tabs

Rancid Chords & Tabs

Version: 1 Type: Bass Tab 0 ratings
1 star 2 stars 3 stars 4 stars 5 stars
comments

Lock Step And Gone Bass Tab

Rancid - Lock, Step and Gone
From the album ...And out come the wolves

vvv-tremolo pick (the notes below the vvv)
*-Let Ring
>-Play note 8 times
I found it easier to use a plectrum for the whole song than fingers
it also makes the interlude-bass solo sound better,but if you have
fast fingers use 'em! enjoy...

----------------------------------------

No bass until 0:19

INTRO [0:19]
G-----------
D-----------
A--0-3-4----
E-----------

VERSE x4 [0:20]
G-------------------------
D--------44444444---------
A---4444----------4444----
E-------------------------

CHORUS [0:32]
G----------------------|------------------------4-6-4---------|
D----------------------|-----------2---2-4-24-6-------6-4-2---|
A--4-44----------------|---2-3-4-4---4----------------------4-|
E-------0000-444-2-222-|-4------------------------------------|
[ Tab from: http://www.guitartabs.cc/tabs/r/rancid/lock_step_and_gone_btab.html ]
G----------------------|----------------------------|
D----------------------|-------------4-44-666-4-444-|
A--4-44----------------|--2----4-44-----------------|
E-------0-00-444-2-222-|-4-4------------------------|

Verse x4 [0:44]

Chorus [0:56]

Break [1:08]

INTERLUDE (1) [1:19]                           vvv 
G-----------------------------|----------------464-----------------|
D-----------------------------|-----2--2-4-5-6-----6-5-4-2---------|
A--2--4-44-2------6-----------|--44--4---------------------4-2-----|
E-4-4--------0-0----4-4--2222-|------------------------------------|
                            vvvvv       vvv                 
G---------------------|-----------------464--------|
D---------------------|-----44434-5-6-6-----6-4-2--|
A-4-44----------------|-4-4------------------------|
E------0-00-444-2-222-|----------------------------|


INTERLUDE (2) [1:32]     x3
G--------------------------|--------------------|
D--------------------------|--------------------|
A-------6-8-6-5--3---------|-4>-5>--------------|
E-0-00------------3-5-555--|--------------------|

Play Chorus [1:44]

Play Verse x8 [1:56]

END NOTES [2:19]
G--------------|
D--------------|
A--4*--4-------|
E--------------|

-Callum
Comments