Rancid - Journey To The End Of The East Bay Chords & Tabs

 

Journey To The End Of The East Bay Chords & Tabs

Rancid Chords & Tabs

Version: 3 Type: Bass Tab 0 ratings
1 star 2 stars 3 stars 4 stars 5 stars
comments

Journey To The End Of The East Bay Bass Tab

   
saw there was only one tab of this song and its one of the sweetest bass intros
ive ever heard so i figured id tab it for u. Im pretty sure most of this is
correct but if u have ne thing to say about it email me at ambiguoussk8r88@netscap.net



Rift A 
G|----------4-4--4-------6-9-6-------------| 
D|--2-3-4-55--5-5-5-----7-------7-3--------| 
A|-3----------------------------------1-2-3| 
E|-----------------------------------1-----| 

Rift B 
G|-------------------------------------------------------| 
D|--2-3-4-55-3-5-3-5-3-5-5-5-3---------------------------| 
A|-3-----------------------------3--1-2-3-4-5-6-7-6-5-4-- 
E|---------------------------------1---------------------| 
                                       ^
                                       |_slide is easier but
                                       doesnt sound as good

[ Tab from: http://www.guitartabs.cc/tabs/r/rancid/journey_to_the_end_of_the_east_bay_btab_ver_3.html ]
Rift C 
G|-------------------------------------------------| 
D|--2-3-4-5-5-5-5-5-5-5-5-4-4-4-4-3-3-3-3-2-2-2-2--| 
A|-3-----------------------------------------------| 
E|-------------------------------------------------| 

Verse 
G|------------------------------------|
D|------------------------------------|
A|-33333333---------------------------| 
E|---------33333333-55555555-11111111-| 

Chorus (not totally sure how many u play of each--
G|-----------| i believe its 3 times each)
D|-----------| 
A|---5-7-----|
E|-3-----8---|

Order 

Rift A 
Rift B 
Rift A 
Rift C 
Rift A 
Rift B 
Rift A 
Rift C 
Verse 4x 
Chorus 4x 
Verse 4x 
Chorus 4x 
Rift A 
Rift B  
Rift A 
Rift C 
G|----------------------------------5-4-3-2-1-------| 
D|--2-3-4-5-5-5-5-5-5-5-5-4-4-4-4-3-----------5-4-3-| 
A|-3------------------------------------------------| 
E|--------------------------------------------------| 

Verse 4x 
Chorus 4x 

Outro 
G|----------------------------------------| 
D|----------------------------------------| 
A|-33333333--------------------3----------| 
E|---------333333333-555555555----1-1-----|
Comments