Rancid - International Cover Up Chords & Tabs

 

International Cover Up Chords & Tabs

Rancid Chords & Tabs

Version: 1 Type: Bass Tab 0 ratings
1 star 2 stars 3 stars 4 stars 5 stars
comments

International Cover Up Bass Tab

Rancid
INTERNATIONAL COVER-UP


[ Tab from: http://www.guitartabs.cc/tabs/r/rancid/international_cover_up_btab.html ]
G:------------------
D:------------------
A:------------------
E:----1--------3----
Chorus:
G:------------------------------------------------------------------
D:------------------------------------------------------------------
A:5-5-5-5----------5-5-5-5----------5-5-5-5-------------------------
E:--------3-3-33-3---------3-33--33---------3-3-33-3-1-1-1-1-3-3-3-3
Verse:
G:----------------------------------------------------
D:------------------------------5---5-3------5---5-3--
A:----0---0-3------0---0-3--1------------1------------
E:1------------1--------------------------------------
Verse continued:
G:---------------------------------------5--3---------
D:------------------------------5---5-3--------5-3----
A:----0---0-3------0---0-3--1----------------------5-3
E:1------------1--------------------------------------
"You don't know what it's like":
G:----------------------------------------------------------
A:-----------------------------------0-0-0-0-1-1-1-1-2-2-2-2
D:------0-0-0-0-1-1-1-1-3-3-3-3-1--1------------------------
E:1--1------------------------------------------------------
"You don't know what it's like" continued:
G:------------------------------------------------------
D:3-3-3-3-2-2-2-2-1-1-1-1-0-0-0-0-----------------------
A:--------------------------------1--1--1--1--0--0--3--4
E:------------------------------------------------------
Bass Solo:
G:7-5-7-5---------------------------
D:--------7-5-7-5--5-3-5-3----------
A:-------------------------5-3------
E:-----------------------------5-3--
Ending:
G:-------
D:-------
A:------5
E:1--3---
TAB by VOOPY 

Comments