Rancid - I Am Forever Chords & Tabs

 

I Am Forever Chords & Tabs

Rancid Chords & Tabs

Version: 2 Type: Tab 0 ratings
1 star 2 stars 3 stars 4 stars 5 stars
comments

I Am Forever Tab

Artist: Rancid
Song: I Am Forever
Album: Rancid 2000

The guy who tabbed the other version was very wrong. this is right.

Intro
e]----------------------------------------------------------------[
b]--------------777777777777------X4------------------------------[
g]333333-666666-666666666666------X4------------------------------[
d]333333-666666-444444444444------X4------------------------------[
a]111111-444444-------------------X4------------------------------[
e]----------------------------------------------------------------[
[ Tab from: http://www.guitartabs.cc/tabs/r/rancid/i_am_forever_tab_ver_2.html ]
during the middle of 2nd time, other guiter plays this...(im not quite sure if this right!)
e]------------------[
b]------------------[
g]-----7-9-12-7-----[
d]-7-9--------------[
a]------------------[
e]------------------[


both guitars
                               X=times
rest of song:
e]--------]---------------------------[
b]--------]---------------------------[         on the second time thru, play 
g]4-3-----]---------------------------[         the higher part 8X. then your
d]----5-4-]---------------2--9-88-9---[  2X     done!
a]--------5-4]-2--5-9---------------4x[
e]-----------]----------4x------------[
Comments