Rancid - I Am Forever Chords & Tabs

 

I Am Forever Chords & Tabs

Rancid Chords & Tabs

Version: 1 Type: Chords 0 ratings
1 star 2 stars 3 stars 4 stars 5 stars
comments

I Am Forever Chords

   
RANCID
I AM FOREVER


b: Bend
r: Release bend

Intro Lick:

 e|------------------------------------|
 B|------------------------------------|
 G|------9-11-11b13------r11-----9-----|
 D|--11----------------------------11--|
 A|------------------------------------|
 E|------------------------------------|

Fill:

 e|-------------------|
 B|-------------------|
 G|--4--3-------------|
 D|---------5--4------|
 A|--------------5-4--|
 E|-------------------|


INTRO:

A#   C#   F# (x4)

[Fill]


VERSE:

b       D F#     b       D F#
I am fore-ver is what he said
b         D  F# b        D F# 
Lost in a dream he never had


CHORUS:
[ Tab from: http://www.guitartabs.cc/tabs/r/rancid/i_am_forever_crd.html ]
E           A#    E          A#
Doors burst open, doors slam shut
    E       A#       E   A#
The key to change is time - He said


VERSE:

b       D F#    b         D F#
My dear mother, I let you down
b               D    F#     b          D F#
No one wants to be a burden on a loved one

[Repeat CHORUS]

[Fill]


b        D       F#    b       D  F#
Riding a freight train all the while
b      D        F#  b       D  F#
You're building the fucking tracks

[Repeat CHORUS]


E           A#    E          A#
Doors burst open, doors slam shut
    E       A#       E (strum once)
The key to change is time
Comments