Rancid - I Am Forever Chords & Tabs

 

I Am Forever Chords & Tabs

Rancid Chords & Tabs

Version: 1 Type: Bass Tab 0 ratings
1 star 2 stars 3 stars 4 stars 5 stars
comments

I Am Forever Bass Tab

Artist: Rancid
Song:   I Am Forever
Album: Rancid 2000
Tabbed by mauro_b (benzanotto@libero.it)

INTRO
|---------------------------------------------------------42----|
|----------------------------------4-4-4-4-4-4-4-4-4-4---2--42--|
|--1-1-1-1-1-1-1-1-4-4-4-4-4-4-4-4---------------------24-------|
|---------------------------------------------------------------|
[ Tab from: http://www.guitartabs.cc/tabs/r/rancid/i_am_forever_btab.html ]
|-------------------------------------------------------------------|
|----------------------------------4-4-4-4-4-4-4-4-4-4-4-4-4-4-4-4--|
|--1-1-1-1-1-1-1-1-4-4-4-4-4-4-4-4----------------------------------|
|-------------------------------------------------------------------|

VERSE
|-------------------|
|----------0-0-4-4--|
|--2-2-2-2----------|
|-------------------|

CHORUS
|-------------------|
|------8-9-8-8-8-9--|
|--7-7--------------|
|-------------------|
Comments