Rancid - Hyena Chords & Tabs

 

Hyena Chords & Tabs

Rancid Chords & Tabs

Version: 4 Type: Bass Tab 0 ratings
1 star 2 stars 3 stars 4 stars 5 stars
comments

Hyena Bass Tab

Intro:
G-/---------------------------------------------------------------|
D-/------0-h1-0---------0-h1-0---------0-h1-0--------------3------|
A-/--1-3-------3-1--1-3-------3-1--1-3-------3-1--3-1-3-4-5-5-4-3-| X3
E-/-3--------------3--------------3-------------------------------|

Verse:
G-/------------------|
D-/--5-3-------------|
A-/------5-3-2-3-2-3-| X9
E-/-3----------------|
[ Tab from: http://www.guitartabs.cc/tabs/r/rancid/hyena_btab_ver_4.html ]
Chorus:
G-/---------------------------------------|
D-/---------------------------------------|
A-/-----3333-1111---------3333-6-5-3-1-3--| X2
E-/-3333---------3333-3333--------------1-|

Bridge:
G-/----------|
D-/-----11---|
A-/-------11-| X8
E-/-1111-----|

Bridge(part 2)
G-/-----------------|
D-/-111111-3-1------|
A-/-----------3-1-1-|
E-/-----------------|

on the guitar solo you play the chorus

End on:
G-/------------|
D-/------------|
A-/-3--6--5-3--|
E-/----------3-|


Order

Intro
verse
chorus
verse
intro
bridge
bridge(second part)
chorus(during guitar solo)
verse
chorus
ending

Tabbed by Shawn Geanakakis
Comments