Rancid - Hoover Street Chords & Tabs

 

Hoover Street Chords & Tabs

Rancid Chords & Tabs

Version: 1 Type: Bass Tab 0 ratings
1 star 2 stars 3 stars 4 stars 5 stars
comments

Hoover Street Bass Tab

   
Song: Hoover Street
Band: Rancid
Album: Life Won't Wait
Tabbed by: Ryan Christo

G:---7-55-7-5------------------------------------------------
D:------------77-5---7-55-7-5--------5-33-5-3----------------
A:-5--------------------------77-5------------55-3-----------
E:-----------------5---------------3---------------7-77-5-55-

G:---7-55-7-5------------------------------------------------
D:------------77-5---7-55-7-5--------5-33-5-3----------------
A:-5--------------------------77-5------------55-3-----------
E:-----------------5---------------3---------------7-77-5-55-
 
G:--------------------------------------------
D:--------------------------------------------
A:-5/--0-5-4-2/--0-2-4-5/--0-5-4-2/--0-2-4-5/-
E:--------------------------------------------

G:-------------------------------------
D:-------------------------------------
A:-0-5-4-2/--0-2-4-5/--0-5-4-2/--0-2-4-
E:-------------------------------------

G:-----------------------------------------------------------------
D:-----------------------------------------------------------------
A:-5-5-5-5-5-5-5-5-2-2-2-0-0-0-2-2-5-5-5-5-5-5-5-5-2-2-2-0-0-0-2-2-
E:-----------------------------------------------------------------

G:-----------------------------------------------------------------
D:-----------------------------------------------------------------
A:-5-5-5-5-5-5-5-5-2-2-2-0-0-0-2-2-5-5-5-5-5-5-5-5-2-2-2-0-0-0-2-2-
E:-----------------------------------------------------------------

G:--------------------------------------------
D:--------------------------------------------
A:-5/--0-5-4-2/--0-2-4-5/--0-5-4-2/--0-2-4-5/-
E:--------------------------------------------

G:-------------------------------------
D:-------------------------------------
A:-0-5-4-2/--0-2-4-5/--0-5-4-2/--0-2-4-
E:-------------------------------------

G:-----------------------------------------------------------------
D:-----------------------------------------------------------------
A:-5-5-5-5-5-5-5-5-2-2-2-0-0-0-2-2-5-5-5-5-5-5-5-5-2-2-2-0-0-0-2-2-
E:-----------------------------------------------------------------

G:-----------------------------------------------------------------
D:-----------------------------------------------------------------
A:-5-5-5-5-5-5-5-5-2-2-2-0-0-0-2-2-5-5-5-5-5-5-5-5-2-2-2-0-0-0-2-2-
E:-----------------------------------------------------------------

G:--------------------------------------------
D:--------------------------------------------
A:-5/--0-5-4-2/--0-2-4-5/--0-5-4-2/--0-2-4-5/-
E:--------------------------------------------

G:-----------------------------------------------------------------
D:-----------------------------------------------------------------
A:-5-5-5-5-5-5-5-5-2-2-2-0-0-0-2-2-5-5-5-5-5-5-5-5-2-2-2-0-0-0-2-2-
E:-----------------------------------------------------------------

G:-----------------------------------------------------------------
D:-----------------------------------------------------------------
A:-5-5-5-5-5-5-5-5-2-2-2-0-0-0-2-2-5-5-5-5-5-5-5-5-2-2-2-2-2-2-2-2-
E:-----------------------------------------------------------------

G:---7-55-7-5------------------------------------------------
D:------------77-5---7-55-7-5--------5-33-5-3----------------
A:-5--------------------------77-5------------55-3-----------
E:-----------------5---------------3---------------7-77-5-55-

G:---7-55-7-5------------------------------------------------
D:------------77-5---7-55-7-5--------5-33-5-3----------------
A:-5--------------------------77-5------------55-3-----------
E:-----------------5---------------3---------------7-77-5-55-

G:--------------------------------------------
D:--------------------------------------------
A:-5/--0-5-4-2/--0-2-4-5/--0-5-4-2/--0-2-4-5/-
E:--------------------------------------------

G:-------------------------------------
D:-------------------------------------
A:-0-5-4-2/--0-2-4-5/--0-5-4-2/--0-2-4-
E:-------------------------------------

G:-----------------------------------------------------------------
D:-----------------------------------------------------------------
A:-5-5-5-5-5-5-5-5-2-2-2-0-0-0-2-2-5-5-5-5-5-5-5-5-2-2-2-0-0-0-2-2-
E:-----------------------------------------------------------------
[ Tab from: http://www.guitartabs.cc/tabs/r/rancid/hoover_street_btab.html ]
G:-----------------------------------------------------------------
D:-----------------------------------------------------------------
A:-5-5-5-5-5-5-5-5-2-2-2-0-0-0-2-2-5-5-5-5-5-5-5-5-2-2-2-0-0-0-2-2-
E:-----------------------------------------------------------------

G:--------------------------------------------
D:--------------------------------------------
A:-5/--0-5-4-2/--0-2-4-5/--0-5-4-2/--0-2-4-5/-
E:--------------------------------------------

G:-------------------------------------
D:-------------------------------------
A:-0-5-4-2/--0-2-4-5/--0-5-4-2/--0-2-4-
E:-------------------------------------

G:-----------------------------------------------------------------
D:-----------------------------------------------------------------
A:-5-5-5-5-5-5-5-5-2-2-2-0-0-0-2-2-5-5-5-5-5-5-5-5-2-2-2-0-0-0-2-2-
E:-----------------------------------------------------------------

G:-----------------------------------------------------------------
D:-----------------------------------------------------------------
A:-5-5-5-5-5-5-5-5-2-2-2-0-0-0-2-2-5-5-5-5-5-5-5-5-2-2-2-0-0-0-2-2-
E:-----------------------------------------------------------------

G:--------------------------------------------
D:--------------------------------------------
A:-5/--0-5-4-2/--0-2-4-5/--0-5-4-2/--0-2-4-5/-
E:--------------------------------------------

G:-----------------------------------------------------------------
D:-----------------------------------------------------------------
A:-5-5-5-5-5-5-5-5-2-2-2-2-2-2-2-2-5-5-5-5-5-5-5-5-2-2-2-2-2-2-2-2-
E:-----------------------------------------------------------------

G:-----------------------------------------------------------------
D:-----------------------------------------------------------------
A:-5-5-5-5-5-5-5-5-2-2-2-2-2-2-2-2-5-5-5-5-5-5-5-5-2-2-2-2-2-2-2-2-
E:-----------------------------------------------------------------

G:---------------------------------------------------------------
D:---7-55-7-5-----------------5-7---7-55-7-5-----------------5-7-
A:-5----------7-5---5----55-7-----5----------7-5---5----55-7-----
E:----------------7---77-------------------------7---77----------

G:---------------------------------------------------------------
D:---7-55-7-5-----------------5-7---7-55-7-5-----------------5-7-
A:-5----------7-5---5----55-7-----5----------7-5---5----55-7-----
E:----------------7---77-------------------------7---77----------

G:---------------------------------------------------------------
D:---7-55-7-5-----------------5-7---7-55-7-5-----------------5-7-
A:-5----------7-5---5----55-7-----5----------7-5---5----55-7-----
E:----------------7---77-------------------------7---77----------

G:---------------------------------------------------------------
D:---7-55-7-5-----------------5-7---7-55-7-5-----------------5-7-
A:-5----------7-5---5----55-7-----5----------7-5---5----55-7-----
E:----------------7---77-------------------------7---77----------

G:-----------------------------------------------------------------
D:-----------------------------------------------------------------
A:-5-5-5-5-5-5-5-5-2-2-2-2-2-2-2-2-5-5-5-5-5-5-5-5-2-2-2-2-2-2-2-2-
E:-----------------------------------------------------------------

G:-----------------------------------------------------------------
D:-----------------------------------------------------------------
A:-5-5-5-5-5-5-5-5-2-2-2-2-2-2-2-2-5-5-5-5-5-5-5-5-2-2-2-2-2-2-2-2-
E:-----------------------------------------------------------------

G:---7-55-7-5------------------------------------------------
D:------------77-5---7-55-7-5--------5-33-5-3----------------
A:-5--------------------------77-5------------55-3-----------
E:-----------------5---------------3---------------7-77-5-55-

G:---7-55-7-5------------------------------------------------
D:------------77-5---7-55-7-5--------5-33-5-3----------------
A:-5--------------------------77-5------------55-3-----------
E:-----------------5---------------3---------------7-77-5-55-

G:---7-55-7-5------------------------------------------------
D:------------77-5---7-55-7-5--------5-33-5-3----------------
A:-5--------------------------77-5------------55-3-----------
E:-----------------5---------------3---------------7-77-5-55-

G:---7-55-7-5--------------------------------------------------
D:------------77-5---7-55-7-5--------5-33-5-3------------------
A:-5--------------------------77-5------------55-3-----------5-
E:-----------------5---------------3---------------7-77-5-55---



Comments