Rancid - Get Outta My Way Chords & Tabs

 

Get Outta My Way Chords & Tabs

Rancid Chords & Tabs

Version: 1 Type: Bass Tab 0 ratings
1 star 2 stars 3 stars 4 stars 5 stars
comments

Get Outta My Way Bass Tab

Rancid
GET OUTTA MY WAY


Intro
G---------------------------------------------
D---------------5-3-2-0----5------------------
A----------------------3--3--5--5-5-5-3-2-----
E--3--3-3-3-3-3-------------------------------

G---------------------------------------------
D-------------- 5-3-2-0-------5---------------
A-----------------------3--3-----5------------
E--3--3-3-3-3-3-------------------------------
Verse
Go away ...
G----------------------------------------------------------
D----------------------------------------------------------
A-------------------------------3-3---3--3-3-2-2---2--2-2--
E-3--3-3-3-3-3-3-3--3-3-3-3-3-3----3-3----------5-5--------
[ Tab from: http://www.guitartabs.cc/tabs/r/rancid/get_outta_my_way_btab.html ]
Chorus:
Don’t want your lies....
G-----------------------------------------------------
D--------------5-5-3-3-2-2-0-0----4--7-7----5--3-2----
A---2-2-3-3-5-5---------------5--5------3--3----------
E--3--------------------------------------------------
BRIDGE:
Y play as much as you...
G----------------------------------------------
D----------------------------------------------
A-------------------3-3---3--3-3-2-2---2--2-2--
E--3-xxxxxxxxxxxxxxx---3-3----------5-5--------


OUTRO:
(Exactly after the guitar solo)
G----------------------------------------------------------
D----------------------------------------------------------
A-------------------------------3-3---3--3-3-2-2---2--2-2--
E-3--3-3-3-3-3-3-3--3-3-3-3-3-3----3-3----------5-5--------
G---------------------------------------------
D---------------5-3-2-0----5------------------
A----------------------3--3--5--5-5-5-3-2-----
E--3--3-3-3-3-3-------------------------------
G---------------------------------------------
D---------------5-3-2-0----5------------------
A----------------------3--3--5--5-5-5-3-2-----
E--3--3-3-3-3-3-------------------------------
G---------------------------------------------
D---------------5-3-2-0----5------------------
A----------------------3--3--5----------------
E--3--3-3-3-3-3-----------------------3xxxxxxx




STRUCTURE:
Intro
Verse
Chorus
bridge
Intro
Verse
Chorus
bridge
Intro
Verse
Chorus
Guitar SOLO:Verse
            Chorus
Outro
The End.
Decoded transcribed and deciphered By
CHITO, Bassist for "POSE 69",formerly named "FauCet".


Comments