Rancid - Fall Back Down Chords & Tabs

 

Fall Back Down Chords & Tabs

Rancid Chords & Tabs

Version: 9 Type: Tab

Fall Back Down Tab

Ok This song is easy and this is my first tab so i hope it works.

The song starts with the bass and the guitar playing.....

1|------------------|
2|------------------|
3|------------------|
4|-----9--11------9-|   Times 4 then play lowder
5|-----7---9--7---7-|
6|------------5-----|
                         verse 1
1|--------------------|--------------------------------|
2|--------------------|--------------------------------|
3|--------------------|--------------------------------|
4|-9---11---------9---|-9---11-------------------------|
5|-7----9----7----7---|-7----9----7----9-9-9-9-9-9-9-9-|
6|-----------5--------|-----------5----7-7-7-7-7-7-7-7-|
             Chorus...
1|--------------------|
2|--------------------|
3|--------------------|  repeat this 4 times until guitar riff changes
4|-9-10--11-------9---|
5|-7--8---9----7--7---|
6|-------------5------|

  Thingy before solo #1
1|---------------------|
2|---------------------|
3|---------------------|   x2
4|-------9-------------|
5|--11---7---9----7----|
6|---9-------7----5----|


now i dont know the solo but if u use the minor pentatonic scale on fret 7
its all good


heres the scale

1|--------------------------------7---10--|
2|-----------------------7--9--10---------|
3|-----------------7--9-------------------|
4|------------7--9------------------------|
5|------7-8-9-----------------------------|
6|-7--10----------------------------------|
[ Tab from: http://www.guitartabs.cc/tabs/r/rancid/fall_back_down_tab_ver_9.html ]
 Verse 2
1|--------------------|--------------------------------|
2|--------------------|--------------------------------|
3|--------------------|--------------------------------|
4|-9---11---------9---|-9---11-------------------------|
5|-7----9----7----7---|-7----9----7----9-9-9-9-9-9-9-9-|
6|-----------5--------|-----------5----7-7-7-7-7-7-7-7-|

  Chorus
1|--------------------|
2|--------------------|
3|--------------------|  repeat this 4 times until solo 2 starts
4|-9-10--11-------9---|
5|-7--8---9----7--7---|
6|-------------5------|

Solo 2 starts use the same scale as before on fret 7 dont forget that hammer ons and 
are good for soloing

1|--------------------------------7---10-|
2|-----------------------7--9--10--------|
3|-----------------7--9------------------|
4|------------7--9-----------------------|
5|-------7-8-9---------------------------|
6|-7--10---------------------------------|

1|------------------------|
2|------------------------|
3|------------------------|   X2
4|--9-9--11-11--------9-9-|
5|--7-7---9--9---7-7--7-7-|
6|---------------5-5------|

1|--------------------|
2|--------------------|
3|--------------------|  repeat this 6 times until solo 3 starts
4|-9-10--11-------9---|
5|-7--8---9----7--7---|
6|-------------5------|

Solo 3 use the major pentatonic scale on fret 12

Major Pentatonic scale

1|-------------------------------------------------------------14--16--17-|
2|-------------------------------------------------14--16--17-------------|
3|-------------------------------------13--14--17-------------------------|
4|-------------------------13--14--17-------------------------------------|
5|--------------12--14--16------------------------------------------------|
6|---12--14--16-----------------------------------------------------------|


End with


1|----------------------------|
2|----------------------------|
3|----------------------------|
4|--9-------------------------|
5|--7-------------------------|
6|----------------------------|

Thats it . This is a fun song to play to if u have it on cd or sumthin

This tab was done by Bryden Scott