Rancid - Fall Back Down Chords & Tabs

 

Fall Back Down Chords & Tabs

Rancid Chords & Tabs

Version: 7 Type: Tab 0 ratings
1 star 2 stars 3 stars 4 stars 5 stars
comments

Fall Back Down Tab

Solo #1 (1:16)
E------------------------------------------------------------------|
B--9-10-9-10-9-10-9---9-10-12-10-12-10-9---------------------------|
G--9-11-9-11-9-11-9---9-11-13-11-13-11-9---------------------------|
D------------------------------------------------------------------|
A------------------------------------------------------------------|
E------------------------------------------------------------------|

E------------------------------------------------------------------|
B--14-12-10-12-10-9---14-12-10-9---9-10-9-10-12-10-9---------------|
G--14-13-11-13-11-9---14-13-11-9---9-11-9-11-13-11-9---------------|
D------------------------------------------------------------------|
A------------------------------------------------------------------|
E------------------------------------------------------------------|
[ Tab from: http://www.guitartabs.cc/tabs/r/rancid/fall_back_down_tab_ver_7.html ]
Solo #2 (2:14)
E------------------------------------------------------------------|
B------------------------------------------------------------------|
G------------------------------------------------------------------|   X2
D------------------------------------------------------------------|
A---7p6-7p6-7-/9\7-6-7-/9\7---7-7\6-6---6-6\4----------------------|
E------------------------------------------------------------------|

Solo #3 (3:09)
E------------------------------------------------------------------|
B---12-10-9--12-10-9--10-9-10-9-10-12-10-9--10-9-10-13-10-9-10-9---|
G---13-11-9--13-11-9--11-9-11-9-11-13-11-9--11-9-11-12-11-9-11-9---|
D------------------------------------------------------------------|
A------------------------------------------------------------------|
E------------------------------------------------------------------|
Comments