Rancid - Fall Back Down Chords & Tabs

 

Fall Back Down Chords & Tabs

Rancid Chords & Tabs

Version: 6 Type: Tab 0 ratings
1 star 2 stars 3 stars 4 stars 5 stars
comments

Fall Back Down Tab

   
Here's fall back down by the mighty rancid fucking ace band.
let me know at antisocialspycho@hotmail.com if anyone has a
decent ruby soho tab! this is the proper version and how it should be played.

intro

e--7--9---5--7
b--9--10--5--9
g--9--9---6--9   play this through 4 times all down strokes
d--9--11--7--9
a--7--9---5--7
e--7--9---5--7

verse 1

e--7--9---5--7--7---9--5
b--9--10--5--9--9--10-5
g--9--9---6--9--9--9--6   play this with hard down strokes
d--9--11--7--9--9--11-7
a--7--9---7--7--7--9--7
e--7--9---5--7--7--9--5

e--7--7--7
b--9--9--7
g--9--9--8      this bit is 'she's not the 1 coming back for u'
d--9--9--9      alternate pick the e chord and down for the b chord.
a--7--7--9
e--7--7--7

chorus

e--7-7-7-7--------------------5-5-5-5-5-7--7-7-7-7-7-7
b--9-9-9-9--------------------5-5-5-5-5-9--9-9-9-9-9-9
g--9-9-9-9--11-11-11-11-11-0--6-6-6-6-6-9--9-9-9-9-9-9
d--9-9-9-9--11-11-11-11-11-0--7-7-7-7-7-9--9-9-9-9-9-9
a--7-7-7-7--9--9--9--9--9--0--7-7-7-7-7-7--7-7-7-7-7-7
e--7-7-7-7--------------------5-5-5-5-5-7--7-7-7-7-7-7
   d d d d  d d   d  u  d  u  d d d u d u  d d u d u d

[ Tab from: http://www.guitartabs.cc/tabs/r/rancid/fall_back_down_tab_ver_6.html ]
middle bit
   c#7                                   E                     B
e--9--9--9--9--9--   9--9--9--9--9---    7-7-7-7-7-7-7-7-7-7-7-7
b--9--9--9--9--9--   9--9--9--9--9--9    7-7-7-7-7-7-7-7-7-7-7-7
g--10-10-10-10-10-   10-10-10-10-10-10   9-9-9-9-9-9-9-9-9-9-9-8
d--9--9--9--9--9--   9--9--9--9--9--9    9-9-9-9-9-9-9-9-9-9-9-9
a--11-11-11-11-11-   11-11-11-11-11-11   9-9-9-9-9-9-9-9-9-9-9-9
e--9--9--9--9--9--   9--9--9--9--9---    7-7-7-7-7-7-7-7-7-7-7-7
   d  d  d  d  u     d  u  d  d  u   d   d d u d d u d d u d u d
                           A
e--7-7-7-7-7-7-7-7-7-7-7---5-5-5-5-5-5-5-5-5-5-5-
b--7-7-7-7-7-7-7-7-7-7-7---5-5-5-5-5-5-5-5-5-5-5-
g--8-8-8-8-8-8-8-8-8-8-8---6-6-6-6-6-6-6-6-6-6-6-
d--9-9-9-9-9-9-9-9-9-9-9---7-7-7-7-7-7-7-7-7-7-7- play the middle section 
a--9-9-9-9-9-9-9-9-9-9-9---7-7-7-7-7-7-7-7-7-7-7- twice
e--7-7-7-7-7-7-7-7-7-7-7---5-5-5-5-5-5-5-5-5-5-5-
   d d u d d u d d u d u   d d u d d u d d u d u
 
 make everything aaaaaaaaaallllllllrrrrrriiiiiggggghhht!!


Solo

e-4-4-4-4---5-5---4-4-4-4--5-5--4-4-4-4-5-5-7-0
b-5-5-5-5---7-7---5-5-5-5--7-7--5-5-5-5---7-9-0


e-4-4-4-4---5-5-s-7---7-7-7-7--5-----5-----7-----7---5-5-5-
b-5-5-5-5---7-7---9---9-9-9-9-----7-----s9----9--9---7-7-7-

e-5--4-4---4s-----9--7--5-5-7-5-5-4
b-7--5-5---5s-10--10-9--7-7-9-7-7-5

e-------s9---7-5-5-5-4-4-4--4--4-4-4-4--5-5
b--s10-------9-7-7-7-5-5-5--4--5-5-5-5--7-7

e--4-4-4-4------5--5s--7---------7-------7------5-5-5-5--4-4-4
b--5-5-5-5---------7s--9-----9--------9-----9---7-7-7-7--5-5-5


intro
verse 1
chorus
middle
solo
verse 1 reapeted
chorus
different version of solo to finish
for those who don't know the middle is played through the second guitar solo
performed by lars fredrickson in the middle of the song. good luck its piss easy!
Comments