Rancid - Fall Back Down Chords & Tabs

 

Fall Back Down Chords & Tabs

Rancid Chords & Tabs

Version: 5 Type: Tab 0 ratings
1 star 2 stars 3 stars 4 stars 5 stars
comments

Fall Back Down Tab

Tabbed by:Rob
song:Fall Back down
artist:Rancid
Album:Indestructable

hey this is a great song by an amazing band.hope this tab helps!!!
PLEASE RATE IT!!!!!!!!!!!!!!!!!!!!!!!!!!!!!!!!!!!!!!!!!!

INTRO

GUITAR 1:LARS
GUITAR 2:TIM

INTRO/VERSE

GUITAR 1 WITH ABIT OF REVERB(CLEAN)            ~:LET RING
e----------------5~------------------------
B--9~-----10~----5~-----9~-----------------
G--9~-----9~-----6~-----9~------X4---------
D--9~-----11~----7~-----9~-----------------     BOTH GUITARS ON VERSES, 
A--7-------9~----7~-----7~-----------------     CHORUS AND MIDDLE SECTION
E--------------  5~------------------------     DISTORTED!!!

GUITAR 2 INTRO/VERSE

e-0~----------------0~----------------------------
B-0~---2~-----2~----0~----------------------------
G-1~---2~-----2~----1~-----X4---------------------
D-2~---2~-----2~----2~----------------------------
A-2~---2~-----------2~----------------------------
E-0~----------------0~----------------------------


CHORUS    GUITAR 1
[ Tab from: http://www.guitartabs.cc/tabs/r/rancid/fall_back_down_tab_ver_5.html ]
e-----------------------5------------------------
B--9--------------------5---------9--------------
G--9--X4----11----------6---X5----9--------------
D--9--------11--X5------7---------9--------------
A--7--------9-----------7---------7   X8---------
E-----------------------5------------------------

GUITAR 2

e-0------------------------0--------
B-0-------2--------2-------0--------
G-1--X4---2--X5----2--X5---1--X8----
D-2-------2--------2-------2--------
A-2-------2----------------2--------
E-0---------------------------------

MIDDLE SECTION    GUITAR 1

e-----------------------7----------5---------------
B--------------9--------7---X12----5---------------
G--10----------9---X10--8----------6---X10---------
D---9---X10----9--------9----------7---------------
A--11----------7--------9----------7---------------
E---9-------------------7----------5---------------


GUITAR 2

I THINK YOU CAN WORK IT OUT,LOOKING AT THE REST OF THE SONG!!!


SORRY I DONT KNOW THE SOLO BUT THERES A QUITE GOOD TAB FOR IT ALREADY!!!
HOPE THAT HELPED IF NOT SORRY!!!
PLEASE DON'T FORGET TO RATE IT!!!
SEE YOU LATER!!!
Comments