Rancid - Endrina Chords & Tabs

 

Endrina Chords & Tabs

Rancid Chords & Tabs

Version: 1 Type: Bass Tab 0 ratings
1 star 2 stars 3 stars 4 stars 5 stars
comments

Endrina Bass Tab

Song: Endrina
Band: Rancid
Album: Bloodclot Single
tabbed Alec(misfit809@Hotmail.com)

Chorus (After stars is only in between the 2 chorus'):
G:-------------------------------------------------*-------------------
D:-------------------------------------------------*------------------
A:--3-33-2-22-0-00--------------------------*-00-11-22--------
E:------------------------2-2-2-3-3-33-3-33-*--------------------
[ Tab from: http://www.guitartabs.cc/tabs/r/rancid/endrina_btab.html ]
Chorus and Verse endings:
G:----------------------
D:----------------------
A:----5-55-5-55------
E:------------------3---

1st ½ of Verse
G:--------------------------------------------
D:---------------------------------2-0-------
A:------------3-33-33----------------2-0--
E:--3-33-33-----------3-33-33------------

Fill between Verses:
G:-----------------------
D:-----------------------
A:----2-3-4-5---------
E:--3-------------------

2nd ½ of Verse:
G:-------------------------------
D:-----------2-3-5b-5b-32----
A:--5-5-55---------------------
E:-------------------------------

Comments