Rancid - Dope Sick Girl Chords & Tabs

 

Dope Sick Girl Chords & Tabs

Rancid Chords & Tabs

Version: 1 Type: Bass Tab 0 ratings
1 star 2 stars 3 stars 4 stars 5 stars
comments

Dope Sick Girl Bass Tab

Rancid
DOPE SICK GIRL


[ Tab from: http://www.guitartabs.cc/tabs/r/rancid/dope_sick_girl_btab.html ]
Intro: (Repeat 2x before playing "Intro continued")
G:------14--------14--------14--------14-17--16-14
D:14-17-----14-17-----14-17-----14-17-------------
A:------------------------------------------------
E:------------------------------------------------
Intro continued: (Repeat whole intro 1x)
G:14---16--17-16---14---
D:--------------------17
A:----------------------
E:----------------------
Instrumental before verse:
G:----------------------------------------------
D:----------------------------------------3--3--
A:----------------3--3----5--5--5--3--5--------5
E:5--5--5--3--5--------5------------------------
Instrumental before verse continued:
G:---------------------------------------------
D:--------------------------------------------5
A:---------3---------------5--5-5--6--7--7-7---
E:5--3--5-----5--3-3--3-5----------------------
Instrumental before verse continued:
G:---------------------------------------------------
D:7--6--5--6--7--6-5--5------------------------3--3--
A:----------------------7--5-5-3-3--5--3--5--5------5
E:---------------------------------------------------
Instrumental before verse continued:
G:----------------------------------------------
D:---------------------------------------------7
A:-----------3---------------5---5---6--7---7---
E:5-5-3-3-5-----5--3-3--3-5---------------------
Verse: (Repeat 1x)
G:--------------------------------------------
D:----------------------------------7--5--4---
A:----------5--5-----------------------------7
E:5--5--5--------5---5--0--0--4--7------------
Chorus: (Repeat 1x)
G:----------------------------------------------
D:---4--5--6--7--6--5--4-----------------------4
A:5-----------------------7--5--4--------4--7---
E:---------------------------------7--5---------
"Anywhere...":
G:-----------------------
D:-----------------------
A:7---7---7---7---7------
E:-----------------------
Ending:
G:-----------------------------------------------
D:7---6---5---6---7--6--5------------------------
A:-------------------------7--5-----5--7---------
E:-------------------------------8--------5--5--5
Figured out and written by Fidget 


Comments