Rancid - Dead Bodies Chords & Tabs

 

Dead Bodies Chords & Tabs

Rancid Chords & Tabs

Version: 2 Type: Bass Tab 0 ratings
1 star 2 stars 3 stars 4 stars 5 stars
comments

Dead Bodies Bass Tab

#----------------------------------PLEASE NOTE---------------------------------#
#This file is the author's own work and represents their interpretation of the #
#song. You may only use this file for private study, scholarship, or research. #
#------------------------------------------------------------------------------#

Song: Dead bodies
Artists: Rancid
Album: Untitled 2000


INTRO

G-----11-14-11-----------------------------------------------------
D--12----------14-11--------11-------------------------------------
A---------------------12-14----14-12-12--13-13-13-13--10-10-10-10--
E------------------------------------------------------------------

G---------------------------
D--12-12-12-12-12-12-12-12--
A---------------------------
E---------------------------


VERSE

G-------------------------
D-------------------------
A--5-5--------------------
E-------5-5--6-6--3--3-3--


CHORUS
[ Tab from: http://www.guitartabs.cc/tabs/r/rancid/dead_bodies_btab_ver_2.html ]
G-----------------------------------------------------------------------2--
D----------4-2-4-2h0---------------------------------------------4-2-4-2---
A--5-5-5-5-------------------4-2-4-2h0-------------------5-5-5-5-----------
E--------------------5-5-5-5-----------6-6-6-6--3-3-3-3--------------------

G-------------------------------------------------------------------------
D----------4-2-4-2h0------------------------------------------------------
A--5-5-5-5-------------------4-2-4-2h0-------------------5-5-5-5-5-5-5-5--
E--------------------5-5-5-5-----------6-6-6-6--3-3-3-3-------------------


INTERLUDE

G-------7-9-10-9-10-9h7----(x7)----*---------9-7-----------
D--7-10----------------------------*--7-9h10-----10-9-8-7--
A----------------------------------*-----------------------
E----------------------------------*-----------------------


OUTRO

G------------------------------------------(x3)----*-----------------------
D--------------------------------------------------*-----------------------
A--------------------5-5-5-5---5---7--8------------*--------------------5--
E--6-6-6-6--3-3-3-3--------------------------------*--6-6-6-6--3-3-3-3-----


mc_call@email.it for questions.

Have fun!!!
Comments