Rancid - Crane Fist Chords & Tabs

 

Crane Fist Chords & Tabs

Rancid Chords & Tabs

Version: 5 Type: Bass Tab

Crane Fist Bass Tab

   
=========================================================================
	      Crane Fist - Rancid - Life Won't Wait		
=========================================================================

Tabbed by: John G.
E-mail: apathyspam@hotmail.com



Main Riff

G|--------------------------2-----|
D|--------2-4~-4-2------2-4---4-2-|
A|---3~-3----------3~-3-----------|
E|--------------------------------|

Riff2A

G|------------------------|
D|---5-5-555543-3-3333-1--|
A|------------------------|
E|------------------------|

Riff2B

G|------------------------|
D|---5-5-555543-3-3333-5--|
A|------------------------|
E|------------------------|

Riff2C
[ Tab from: http://www.guitartabs.cc/tabs/r/rancid/crane_fist_btab_ver_5.html ]
G|--------------------2---|
D|---5-5-555543-3-333--3--|
A|------------------------|
E|------------------------|

Riff3
	    x4		 x4
G|------------|------------|
D|------5555--|------------|
A|--3~-3------|------2222--|
E|------------|--0~-0------|

End

G|---|
D|---|
A|-3-|
E|---|

=========================================================================

Order:

Main Riff x11
Riff2A
Main Riff x5
Riff2B
Main Riff x2
Riff 3 x2
Main Riff x5
Rest
Main Riff x5
Riff2C
Main Riff x2
Riff3 x2
Main Riff x4
End

=========================================================================

Notes:

Other tabs were missing some parts. This is what I hear anyway :P

=========================================================================