Rancid - Crane Fist Chords & Tabs

 

Crane Fist Chords & Tabs

Rancid Chords & Tabs

Version: 3 Type: Bass Tab 0 ratings
1 star 2 stars 3 stars 4 stars 5 stars
comments

Crane Fist Bass Tab

This is an awesome song off of Rancids new album "life won't wait" you'll have
to listen to the songa  few times to get the timing and order etc correct but
the tab is as far as I can tell 100% correct.
 
Verse
 
||------------------|-----------------| 
||------------------|-----------8-----| 
||--------7-9-9-7---|------7-9---9-7--|
||---8-8------------|-8-8-------------|
 
End of verse
 
||---------------------------|-----------------------|
||---------------------------|-----------------------|
||--10-10-10-10-10-8-8-8-8-8-|------------------------
||---------------------------|-----------------------|
 
 
I don't know what to define this as. Solo maybe?
 
||----------------------|--------------------|
||----------------------|--------------------|
||--------10-10-10-10---|---7-7--------------|
||--8-8-----------------|-----------7-7-7-7--|
 
 
There ya go! Simple as Maxwell murders solp! :) Hope you like it as much as I
like the song! Enjoy.
 
 
                                                         Snardô 



[ Tab from: http://www.guitartabs.cc/tabs/r/rancid/crane_fist_btab_ver_3.html ]
Comments