Rancid - Corruption Chords & Tabs

 

Corruption Chords & Tabs

Rancid Chords & Tabs

Version: 2 Type: Bass Tab 0 ratings
1 star 2 stars 3 stars 4 stars 5 stars
comments

Corruption Bass Tab

   
Artist: Rancid
Song:   Corruption
Album:  Rancid 2000
Tabbed by mauro_b (benzanotto@libero.it)

Riff A
|-------------------------------|
|-------------------------------|
|-4-4-4-4-----------------------|
|---------3-2-1-0-0-0-0-0-0-0-0-|
[ Tab from: http://www.guitartabs.cc/tabs/r/rancid/corruption_btab_ver_2.html ]
Riff B
|---------------------------------|
|---------3-3-1-1-2-2-2-2-2-2-2-2-|
|-4-4-4-4-------------------------|
|---------------------------------|

Riff C
|-------------------------------------------------|
|-------------------------------------------------|
|-4-4-4-4-4-4-4-4-5-5-5-5-6-6-6-6-----------------|
|---------------------------------0-0-0-0-0-0-0-0-|

Verse
|---------------------------------|
|---------------------------------|
|---------0-0-----4-4-4-4-3-3-3-3-|
|-4-4-4-4-----2-2-----------------|

Comments