Rancid - California Sun Chords & Tabs

 

California Sun Chords & Tabs

Rancid Chords & Tabs

Version: 1 Type: Tab 0 ratings
1 star 2 stars 3 stars 4 stars 5 stars
comments

California Sun Tab

hey yall, this duznt have the corus or the solo but it has almost all
of the song and , well here goes
blink182_00@hotmail.com
REGULAR TUNING-eadgba

[ Tab from: http://www.guitartabs.cc/tabs/r/rancid/california_sun_tab.html ]
california sun has sunk
E---------------------------------------------------------
B---------------------------------------------------------
G---5-5-5-5-5---------------2-2-2-2------------5-5-5-5----(x2)
D---5-5-5-5-5-----3-3-3-3---2-2-2-2---5-5-5-5--5-5-5-5---- 
A---3-3-3-3-3-0---3-3-3-3---0-0-0-0---5-5-5-5--3-3-3-3----
E-------------0---1-1-1-1-------------3-3-3-3-------------
2nd guitar
E----------------------------------------------------
B----------------------------------------------------
G--5--5--5-------------------------------------------
D--5--5--5-----------repeated throughout the whole song
A--3--3--3-------------------------------------------
E----------------------------------------------------

well thats basicly it the intros palm muted and the rest of the song
is built off of that

U GUYS RAWK,RANCID RAWKS, and punk RULES
Comments