Rancid - Burn Chords & Tabs

 

Burn Chords & Tabs

Rancid Chords & Tabs

Version: 2 Type: Bass Tab 0 ratings
1 star 2 stars 3 stars 4 stars 5 stars
comments

Burn Bass Tab

Rancid
Burn

Intro and "Yeah...I'm in hell.": (Repeat 4x)
G:-----------------------
D:----3-5-3-5-6-5-3-5-3--
A:3-6-------------------6
E:-----------------------
[ Tab from: http://www.guitartabs.cc/tabs/r/rancid/burn_btab_ver_2.html ]
"Why can't I?": (Repeat once)
G:--------------------------------------------------------------
D:----------2-0-----2-0-----2-0------------2-0-----2-0----------
A:----0-2-3-----2-3-----2-3-----3-----0-2-3-----2-3----2---3-2--
E:1-3-----------------------------1-3--------------------3-----3

Chorus and "Thirteen red and white stripes flyin": (Repeat once)
G:------------------------------------------------------------------
D:------------------------------------------------6-5-5-5-6-5-3-----
A:3-3-3-3-------------------------3-3-3-3-5-6-6-6---------------6-5-
E:--------4-4-4-4-3-3-3-3-2-3-3-3-----------------------------------

Figured out and written by Fidget (bassist of Half Moon)
Comments