Rancid - Bob Chords & Tabs

 

Bob Chords & Tabs

Rancid Chords & Tabs

Version: 1 Type: Tab 0 ratings
1 star 2 stars 3 stars 4 stars 5 stars
comments

Bob Tab

(Spent fifteen years...)
|-----------------------------------------------------
|-----------------------------------------------------
|-----------------------------------------------------
|55-5--55-5--55-5--55-5-------------------------------x2
|33-3--33-3--33-3--33-3--33-3--33-3--33-3--33-3-------
|------------------------11-1--11-1--11-1--11-1-------
 the 2 chords right next to each other are palm muted

Then, first guitar keeps playing that and second guitar comes in playing 
|-----------------------------------------------------
|-----------------------------------------------------
|-----------------------------------------------------
|--5---------------5----------------------------------x2
|--3-------3-------3-------3--------------------------
|----------1---------------1--------------------------

|-----------------------------------------------------
|-----------------------------------------------------
|-----------------------------------------------------
|5-5-555----------------------------------------------x2
|3-3-333-5-5-555--7-7-777--3-3-3333-------------------
|--------3-3-333--5-5-555--1-1-1111-------------------
[ Tab from: http://www.guitartabs.cc/tabs/r/rancid/bob_tab.html ]
|----------------------------------
|----------------------5----5----5
|---------5h7-7-b7---b7---b7—b7b7b7  That’s all I figured out of the solo
|--55-5h7-----------------------
|----------------------------------
|----------------------------------

now its time for the verse again

|-----------------------------------------------------
|-----------------------------------------------------
|-----------------------------------------------------
|--5---------------5----------------------------------x1
|--3-------3-------3-------2-----3--------------------
|----------1---------------0-----1--------------------

|-----------------------------------------------------
|-----------------------------------------------------
|-----------------------------------------------------
|--5-5-5555--3-3-3333---------------------------------x6
|--3-3-3333--1-1-1111--3-3-3333--5-5-5555-------------
|----------------------1-1-1111--3-3-3333-------------

|-----------------------------------------------------
|-----------------------------------------------------
|-----------------------------------------------------
|--5-------------------------------5------------------
|--3-------5-------7-------3-------3------------------
|----------3-------5-------1--------------------------

end on the D chord
Comments