Rancid - Black Lung Chords & Tabs

 

Black Lung Chords & Tabs

Rancid Chords & Tabs

Version: 1 Type: Tab 0 ratings
1 star 2 stars 3 stars 4 stars 5 stars
comments

Black Lung Tab

song-black Lung
artist-Rancid
Album-Life wont wait


This is my First Tab and pretty sure it's correct. If any suggestions
e-mail me at tangerinesockpuppet@msn.com
   
[ Tab from: http://www.guitartabs.cc/tabs/r/rancid/black_lung_tab.html ]
   INTRO
e  -------------------------------------------------------------------
b  -------------------------------------------------------------------
g  -5----3----5-----7-----5-----3-----5-----5-----3------3------5-----Repeat a
d  -------------------------------------------------------------------couple of
a  -------------------------------------------------------------------times
e  -------------------------------------------------------------------
 
   Verse 1
e  -5-----------------------------------------------------------------
a  -----6-------------------------------------------------------------repeat 
d  --------------5----------------------------------------------------about 3
g  -------------------------------------------------------------------times
b  -------------------------------------------------------------------
e  -------------------------------------------------------------------

   Chorus
e  --------------------------------------------------------------------------
a  --------------------------------------------------------------------------
d  ---------3333333---6666666----------------------3333333--6666666----------
g  3333333--3333333---6666666--6666666----3333333--3333333--6666666--6666666-
b  3333333--1111111---4444444--6666666----3333333--1111111--4444444--6666666-
e  1111111---------------------4444444----1111111--------------------4444444-


e  --------------------------------------------------------------------------
a  --------------------------------------------------------------------------
d  -33333333---6666666-------------------------------------------------------
g  -33333333---6666666--6----------------------------------------------------
b  -11111111---4444444--6----------------------------------------------------
e  ---------------------4----------------------------------------------------

Don't really know the part where it goes "hey unbeliever, black lung fever,transmit receiver....
  
Comments