Rancid - Black Lung Chords & Tabs

 

Black Lung Chords & Tabs

Rancid Chords & Tabs

Version: 3 Type: Bass Tab 0 ratings
1 star 2 stars 3 stars 4 stars 5 stars
comments

Black Lung Bass Tab

   
-------------------------------------------------------------------------------
				<< RANCID >> - BLACK LUNG
-------------------------------------------------------------------------------

[ Tabber: LUIZ MANZANO (BRASIL) ]
[ e-mail: lukdeluca@yahoo.com.br ]

Riff_1
G|----------------------|
D|------------1-031-----|
A|--3-----3-33-----31---|
E|44--4-33--------------|

Riff_2
G|------------------------|
D|------3-----------------|
A|---444-4313-3333-31-----|
E|1111---------------43---|
[ Tab from: http://www.guitartabs.cc/tabs/r/rancid/black_lung_btab_ver_3.html ]
Riff_3
G|-----------------------------------------------------------------------------------|
D|---------------------------------------------------------------------3-------------|
A|------011111-33-4444-313--------------011111-33-4444-313-----3\1-1111-13-4444444---|
E|111113------------------44444-3-111113------------------44444----------------------|

Bass solo 
G|-----------------------------------------|
D|------------1-031---------------1-0530---|
A|--3-----3-33-----31---3-----3-33---------|
E|44--43-3------------44--43-3-------------|

Bass solo_final (8x)
G|--------------|
D|------3h4h5---|
A|-33-55--------|
E|3-------------|


Song Order:

(intro_guitars)

Riff_1 = 6x
Riff_2 = 2x
Riff_3 = 1x
Riff_1 = 4x
Riff_2 = 2x
Riff_3 = 1x
(guitars only)
Bass solo = 1x
Bass solo_final = 8x
Riff_3 = 1x
Riff_1 = 2x 

| /  slide up
| \  slide down
| h  hammer-on
| p  pull-off
| ~  vibrato
| +  harmonic
| x  Mute note
===============================================================================
Comments