Rancid - Battering Ram Chords & Tabs

 

Battering Ram Chords & Tabs

Rancid Chords & Tabs

Version: 1 Type: Tab 0 ratings
1 star 2 stars 3 stars 4 stars 5 stars
comments

Battering Ram Tab

   
#----------------------------------PLEASE NOTE---------------------------------#
#This file is the author's own work and represents their interpretation of the #
#song. You may only use this file for private study, scholarship, or research. #
#------------------------------------------------------------------------------##
Rancid: Battering Ram
Album: Rancid '7
Tunning: standerd 
Tabed By: Manuel Robles
PM: palm mute
b: bend


Well i've been board latly and have come to realize that there are no
tabs for this song either..so ive been listening and listening to this song
over and over and ive finally come up wih a decent match for this song so i
hope this helps all you die-hard Rancid fans out there. Oh by the way i suggest 
that you look for the lyrics for this song because i think this song is just
briliantly writen and i give time armstrong and matt freeman extream props,
so heres the tab for battering ram and i hope you enjoy it.




    INTRO
     2X
  e|------------------------------------------------| 
  B|------------------------------------------------|
  G|------------------------------------------------|
  D|------------------------------------------------|
  A|--------------8-8-8-10-11-10-8-6----------------|
  E|---3b---------6-6-6-8--9--8--6-4-----3b---------|         
                pm..................              

    2X
  e|------------------------------------------------| 
  B|------------------------------------------------|
  G|------------------------------------------------|
  D|------------------------------------------------|
  A|--------------8-8-8-10-11-10-8-6----------------|
  E|---3b---------6-6-6-8--9--8--6-4-----3b---------|
         
               drum starts
    2X
  e|------------------------------------------------| 
  B|------------------------------------------------|
  G|------------------------------------------------|
  D|------------------------------------------------|
  A|--------------8-8-8-10-11-10-8-6----------------|
  E|---3b---------6-6-6-8--9--8--6-4-----3b---------|

       2X  
     yeeeeeaaaaaaaahhhhhh
  e|------------------------------------------------| 
  B|------------------------------------------------|
  G|------------------------------------------------|
  D|------------------------------------------------|
  A|--------------8-8-8-10-11-10-8-6----------------|
  E|---3b---------6-6-6-8--9--8--6-4-----3b---------|         
           
      VERSE 1
     
     Some people are rotten deep..........
  e|-------------------------------------|  
  B|-------------------------------------| 
  G|-------------------------------------|
  D|--------------------6-6-6-6-6-6-6-6--|
  A|---3-3-3-3-3-3-3-3--4-4-4-4-4-4-4-4--|
  E|---1-1-1-1-1-1-1-1-------------------| 

                  
  e|-------------------------------------|  
  B|-------------------------------------| 
  G|-------------------------------------|
  D|--------------------6-6-6-6-6-6-6-6--|
  A|---3-3-3-3-3-3-3-3--4-4-4-4-4-4-4-4--|
  E|---1-1-1-1-1-1-1-1-------------------| 


  e|--------|  
  B|--------| 
  G|--------|    (MATTS PART) BEEN RUNNIN MY HOLE LIFE AND IM STILL RUNNIN  
  D|---5----|
  A|---3----|
  E|--------|


     VERSE 2

    2X
  
  e|-------------------------------------|  
  B|-------------------------------------| 
  G|-------------------------------------|
  D|--------------------6-6-6-6-6-6-6-6--|
  A|---3-3-3-3-3-3-3-3--4-4-4-4-4-4-4-4--|
  E|---1-1-1-1-1-1-1-1-------------------|
 
     2X 
                   
  e|-------------------------------------|  
  B|-------------------------------------| 
  G|-------------------------------------|
  D|--------------------6-6-6-6-6-6-6-6--|
  A|---3-3-3-3-3-3-3-3--4-4-4-4-4-4-4-4--|
  E|---1-1-1-1-1-1-1-1-------------------| 

     CHOURUS

    2X
battering ram........... 
  e|-----------------------------------|  
  B|-----------------------------------| 
  G|-----------------------------------|
  D|-----------8-8-8-8-3-3-3-3-3-3-3-3-|
  A|---5-5-5-5-6-6-6-6-1-1-1-1-1-1-1-1-|
  E|---3-3-3-3-------------------------| 

    2X
battering ram........... 
  e|-----------------------------------|  
  B|-----------------------------------| 
  G|-----------------------------------|
  D|-----------8-8-8-8-3-3-3-3-3-3-3-3-|
  A|---5-5-5-5-6-6-6-6-1-1-1-1-1-1-1-1-|
  E|---3-3-3-3-------------------------| 


      VERSE 3
       
    
    2X
  e|-------------------------------------|  
  B|-------------------------------------| 
  G|-------------------------------------|
  D|--------------------6-6-6-6-6-6-6-6--|
  A|---3-3-3-3-3-3-3-3--4-4-4-4-4-4-4-4--|
  E|---1-1-1-1-1-1-1-1-------------------| 
[ Tab from: http://www.guitartabs.cc/tabs/r/rancid/battering_ram_tab.html ]
                         Battering Ram!
    2X
  e|-------------------------------------|  
  B|-------------------------------------| 
  G|-------------------------------------|
  D|--------------------6-6-6-6-6-6-6-6--|
  A|---3-3-3-3-3-3-3-3--4-4-4-4-4-4-4-4--|
  E|---1-1-1-1-1-1-1-1-------------------| 



  e|--------|  
  B|--------| 
  G|--------|    (MATTS PART) BEEN RUNNIN MY HOLE LIFE AND IM STILL RUNNIN  
  D|---5----|
  A|---3----|
  E|--------| 

     VERSE 4


    2X
  e|-------------------------------------|  
  B|-------------------------------------| 
  G|-------------------------------------|
  D|--------------------6-6-6-6-6-6-6-6--|
  A|---3-3-3-3-3-3-3-3--4-4-4-4-4-4-4-4--|
  E|---1-1-1-1-1-1-1-1-------------------| 

    2X              
  e|-------------------------------------|  
  B|-------------------------------------| 
  G|-------------------------------------|
  D|--------------------6-6-6-6-6-6-6-6--|
  A|---3-3-3-3-3-3-3-3--4-4-4-4-4-4-4-4--|
  E|---1-1-1-1-1-1-1-1-------------------| 


     CHOURUS 2
   2X
battering ram........... 
  e|-----------------------------------|  
  B|-----------------------------------| 
  G|-----------------------------------|
  D|-----------8-8-8-8-3-3-3-3-3-3-3-3-|
  A|---5-5-5-5-6-6-6-6-1-1-1-1-1-1-1-1-|
  E|---3-3-3-3-------------------------| 

      2X
battering ram...........
  e|-----------------------------------|  
  B|-----------------------------------| 
  G|-----------------------------------|
  D|-----------8-8-8-8-3-3-3-3-3-3-3-3-|
  A|---5-5-5-5-6-6-6-6-1-1-1-1-1-1-1-1-|
  E|---3-3-3-3-------------------------| 


     SOLO 
                                     
                            
e|---1-1-1-1-1-1-1-1--0-0-0-0-0-0-0-0--0-0-0-0-0-0-0-0-----------------|  
B|---1-1-1-1-1-1-1-1--1-1-1-1-1-1-1-1--1-1-1-1-1-1-1-1--3-3-3-3-3-3-3-3| 
G|---2-2-2-2-2-2-2-2--2-2-2-2-2-2-2-2--2-2-2-2-2-2-2-2--3-3-3-3-3-3-3-3|
D|------------------------------------------------------3-3-3-3-3-3-3-3|
A|---------------------------------------------------------------------|
E|---------------------------------------------------------------------| 

               
e|---1-1-1-1-1-1-1-1--0-0-0-0-0-0-0-0--0-0-0-0-0-0-0-0-----------------|  
B|---1-1-1-1-1-1-1-1--1-1-1-1-1-1-1-1--1-1-1-1-1-1-1-1--3-3-3-3-3-3-3-3| 
G|---2-2-2-2-2-2-2-2--2-2-2-2-2-2-2-2--2-2-2-2-2-2-2-2--3-3-3-3-3-3-3-3|
D|------------------------------------------------------3-3-3-3-3-3-3-3|
A|---------------------------------------------------------------------|
E|---------------------------------------------------------------------| 
      INTRO 2
      2X
  e|------------------------------------------------| 
  B|------------------------------------------------|
  G|------------------------------------------------|
  D|------------------------------------------------|
  A|--------------8-8-8-10-11-10-8-6----------------|
  E|---3b---------6-6-6-8--9--8--6-4-----3b---------|         
                pm..................

       2X
       yeah                    fucken you
   E|------------------------------------------------| 
  B|------------------------------------------------|
  G|------------------------------------------------|
  D|------------------------------------------------|
  A|--------------8-8-8-10-11-10-8-6----------------|
  E|---3b---------6-6-6-8--9--8--6-4-----3b---------|         
                pm..................                   VERSE 5

   
  e|-------------------------------------|  
  B|-------------------------------------| 
  G|-------------------------------------|
  D|--------------------6-6-6-6-6-6-6-6--|
  A|---3-3-3-3-3-3-3-3--4-4-4-4-4-4-4-4--|
  E|---1-1-1-1-1-1-1-1-------------------| 

           BATTERING RAAAAAAAAAMMMMMMMMM!
  e|-------------------------------------|  
  B|-------------------------------------| 
  G|-------------------------------------|
  D|--------------------6-6-6-6-6-6-6-6--|
  A|---3-3-3-3-3-3-3-3--4-4-4-4-4-4-4-4--|
  E|---1-1-1-1-1-1-1-1-------------------| 

    CHOURUS 3

       2X
battering ram...........
  e|-----------------------------------|  
  B|-----------------------------------| 
  G|-----------------------------------|
  D|-----------8-8-8-8-3-3-3-3-3-3-3-3-|
  A|---5-5-5-5-6-6-6-6-1-1-1-1-1-1-1-1-|
  E|---3-3-3-3-------------------------| 

        2X
battering ram..........
  e|-----------------------------------|  
  B|-----------------------------------| 
  G|-----------------------------------|
  D|-----------8-8-8-8-3-3-3-3-3-3-3-3-|
  A|---5-5-5-5-6-6-6-6-1-1-1-1-1-1-1-1-|
  E|---3-3-3-3-------------------------| 


e|------------------------------------------|  
B|------------------------------------------| 
G|------------------------------------------|
D|---5--8-8-8-8-8-8-8-8--5--8-8-8-8-8-8-8-8-|
A|---3--6-6-6-6-6-6-6-6--3--6-6-6-6-6-6-6-6-|
E|------------------------------------------|
 
    END
  e|-------|  
  B|-------| 
  G|-------|
  D|---5---|
  A|---5---|
  E|---3---| 
                                          THE END
        
     Well i hope this helps some people out.  For any coments or corrections then e-mail
     me at threeboysandacat@msn.com, well laterz.
Comments