Rancid - As Wicked Chords & Tabs

 

As Wicked Chords & Tabs

Rancid Chords & Tabs

Version: 1 Type: Bass Tab 0 ratings
1 star 2 stars 3 stars 4 stars 5 stars
comments

As Wicked Bass Tab


Intro
                                       [repeat this part once]
G|-----------------------------------------|-------------------------------|
D|--------------------------------------- -|------------------------------|
A|-0345--------0345---5---5---------|-03455------55------55----------|
E|----------------------------------5---3-|-----333203--333203--333203553-|

Verse   [x4]

G|----------------------------------------|
D|---------------------------------------77754--|
A|-55532----------------3555575--------------7-|
E|-------------533335--------------|

Pre-Chorus   [x1]
[ Tab from: http://www.guitartabs.cc/tabs/r/rancid/as_wicked_btab.html ]
G|---6-9-11-9-9-16-14-12-11-9-|
D|-7-----------------------------------|
A|---------------------------------------|
E|-------------------------------------|

Chorus   [x2]

G|--------------------------------|
D|----------------------------------|
A|-03455------------55-----------55----------|
E|----------333203-----333203-----333203553-|

Verse
Pre-Chorus
Chorus

Bridge   [x1]

G|---------------------------------------------------------|
D|---------------------------------------------------------|
A|-5555555555----------------------------55555555555-----------------|
E|------------------0-3-55555555550-3----------------------0-3-5555555555-3-|

Guitar Solo   [x2]

G|--------------------------------|
D|--------------------------------|
A|-03455------------55--------------55----------|
E|---------333203--------333203------333203553-|

Verse
Pre-Chorus
Chorus
Comments