Rancid - 1998 Chords & Tabs

 

1998 Chords & Tabs

Rancid Chords & Tabs

Version: 1 Type: Bass Tab 0 ratings
1 star 2 stars 3 stars 4 stars 5 stars
comments

1998 Bass Tab

Song: 1998     Band: Rancid     Album: Life Won't Wait


nick fraher                Intro
G:----------------------------------------------------------
D:--------------------------------------------------5--5--5-
A:8b-8b-6---------6-6-3-2---------0-0-3-0-3-4-5--7----------
E:-------8----------------6-5-3-0---------------------------

Verse
G:--------------------------|-------------------------------
D:--------------------------|-------------------------------
A:5-5--3-3--1-1-------------|--------------0-0-0-0-0-0------
E:---------------0-3-0-2-3--|1-1-1-1-0-1-3------------------

Chorus
G:----------------------------------------------------------
D:------3---------------------------------------------------
A:5-5-5---5-5-5-3-3-3-3-3---------------------0-0-0-0-0-0-0-
E:------------------------0-2-0-3-3-3-3-0-2-3---------------
[ Tab from: http://www.guitartabs.cc/tabs/r/rancid/1998_btab.html ]
middle part
G:-------------------------------------3-5-3----------------
D:--3--------------------------3-------------5-3-5-3--------
A:5---5-3-0-1-0---1---0-2-3-5---5-3-------------------5-3---
E:---------------1---1-------------------------------------

G:----------------------------------------------------------
D:--3-----------------------------------------------------
A:5---5-3-0-1-0---1-----------------------0-0-0-0-0-0-0---
E:---------------1---1-0-1-0-1-1-1-1-0-1-3-----------------

G:----------------------------------------------------------
D:--3-----------3-5-5-5---3---------------------------------
A:5---5-3-0-1-1---------5---5-3-0-1-0---1---0-2-3-5-------
E:-------------------------------------1---1---------------

G:----------------------------------------------------------
D:3---------------------------------------------------------
A:--5-3-0-1-0---1-----------------------------------------
E:-------------1---1-0-1-0---intro
Comments