Ramones - Zero Zero Ufo Chords & Tabs

 

Zero Zero Ufo Chords & Tabs

Ramones Chords & Tabs

Version: 1 Type: Tab 1 rating
1 star 2 stars 3 stars 4 stars 5 stars
comments

Zero Zero Ufo Tab

   
Intro & Verse

e|--------------------------------|
H|--------------------------------|
G|--------------------------------|
D|2-2-2-2-57-7-7-7-7-7-7-75-2-2-2-|
A|2-2-2-2-57-7-7-7-7-7-7-75-2-2-2-|
E|0-0-0-0-35-5-5-5-5-5-5-53-0-0-0-|

Chorus
e|------------------------------------------------------------------------------------------------|
H|------------------------------------------------------------------------------------------------|
G|------------------------------------------------------------14-14-14-14-------------14-14-14-14-|
D|10-10-10-10-10-10-10-10-10-10-10-10-10-10-10-10-14-14-14-14-14-14-14-14-14-14-14-14-14-14-14-14-|
A|10-10-10-10-10-10-10-10-10-10-10-10-10-10-10-10-14-14-14-14-12-12-12-12-14-14-14-14-12-12-12-12-|
E|8--8--8--8--8--8--8--8--8--8--8--8--8--8--8--8--12-12-12-12-------------12-12-12-12-------------|
x=2 (Last time x=4 and no lower part)
e|--------------------------------|
H|--------------------------------|
G|--------------------------------|
D|9-9-9-9-9-9-9-9-9-9-9-9-9-9-9-9-|
A|9-9-9-9-9-9-9-9-9-9-9-9-9-9-9-9-|
E|7-7-7-7-7-7-7-7-7-7-7-7-7-7-7-7-|
[ Tab from: http://www.guitartabs.cc/tabs/r/ramones/zero_zero_ufo_tab.html ]
Solo
e|----------------7-7-7-7-7-7-7-7-----------------7-7-7-7-7-7-7-7-|
H|5-5-5-5-5-5-5-5-----------------5-5-5-5-5-5-5-5-----------------|
G|----------------------------------------------------------------|
D|----------------------------------------------------------------|
A|----------------------------------------------------------------|
E|----------------------------------------------------------------|

e|12-12-12-12-12-12-12-12-------------------------12-12-12-12-12-12-12-12-------------12-12-12-12-|
H|------------------------12-12-12-12-12-12-12-12-------------------------12-12-12-12-------------|
G|------------------------------------------------------------------------------------------------|
D|------------------------------------------------------------------------------------------------|
A|------------------------------------------------------------------------------------------------|
E|------------------------------------------------------------------------------------------------|

Ending

e|---------------------------------------------------|
H|---------------------------------------------------|
G|------------14-14-14-14-------------14-14-14-14----|
D|14-14-14-14-14-14-14-14-14-14-14-14-14-14-14-14-14-|
A|14-14-14-14-12-12-12-12-14-14-14-14-12-12-12-12-14-|
E|12-12-12-12-------------12-12-12-12-------------12-|

ORDER:

Intro & Verse x=6
Chorus
Intro & Verse x=4
Chorus
Solo
Chorus (last time)
Ending

Good Luck!
Comments