Ramones - Warthog Chords & Tabs

 

Warthog Chords & Tabs

Ramones Chords & Tabs

Version: 1 Type: Tab 0 ratings
1 star 2 stars 3 stars 4 stars 5 stars
comments

Warthog Tab

This is a really fun song to play. I recommend telling all your friends about it. Enjoy.

chorus
----------------------------------------------------------------------------------------------------
---------------------------------------------------------------------------------------------------
---------------------------------------------------------------------------------------------------------
--3--3-3-3--3-3-3--3-3-6-3---3--3-3-3--3-3-3--3-3-6-3----------------------------------
--3--3-3-3--3-3-3--3-3-6-3---3--3-3-3--3-3-3--3-3-6-3-----------------------------------------
--1--1-1-1--1-1-1--1-1-4-1---1--1-1-1--1-1-1--1-1-4-1----------------------------------

play this 2 times and slide your hand really fast when you hit the 4-6-6

verse
---------------------------------------------------------------------------------------------------
--------------------------------------------------------------------------------------------------
---------------------------------------------------------------------------------------------------
--3--3-3-6--6-8--8-8-8-8-8-8-8-8-8-8--3--3-3-6--6-8--8-8-8-8-8-8-8-8-8-8-8-8-8-----------------
--3--3-3-6--6-8--8-8-8-8-8-8-8-8-8-8--3--3-3-6--6-8--8-8-8-8-8-8-8-8-8-8-8-8-8-----------------
--1--1-1-4--4-6--6-6-6-6-6-6-6-6-6-6--1--1-1-4--4-6--6-6-6-6-6-6-6-6-6-6-6-6-6------------------

play two times and then
[ Tab from: http://www.guitartabs.cc/tabs/r/ramones/warthog_tab.html ]
bridge 1
----------------------------------------------------------------------------------------------------
---------------------------------------------------------------------------------------------------
-----------------------------------------------------------------------------------------------------
--6--6-6-9--9-11--11-11-11-11-11---------------------------------------------------------------
--6--6-6-9--9-11--11-11-11-11-11---------------------------------------------------------------
--4--4-4-7--7- 9-- 9- 9- 9- 9- 9----------------------------------------------------------

play twice

play the verse two times ,the chorus two times and then play the verse again

then play this four times
bridge 2

----------------------------------------------------------------------------------------------------
---------------------------------------------------------------------------------------------------
--8--8-8-4-4-4------------------------------------------------------------------------------
--8--8-8-4-4-4-6--6-6-6-6-6-6-6-6----------------------------------------------------------------
--6--6-6-2-2-2-6--6-6-6-6-6-6-6-6----------------------------------------------------------------
---------------4--4-4-6-6-6-6-6-6-----------------------------------------------------------------

after that play the verse and chorus again
followed by bridge 1 and this

bridge 3
----------------------------------------------------------------------------------------------------
-----------------------------------------------------------------------------------------------------
----------------------------------------------------------------------------------------------------
--8--8-8-11--11-13-13-13-13-13-13-13------------------------------------------------
--8--8-8-11--11-13-13-13-13-13-13-13------------------------------------------------
--6--6-6- 9-- 9-11-11-11-11-11-11-11----------------------------------------------------------

play this two times followed by the chorus

play bridge one and three agian and then play the chorus 


thats the whole song. listen to it for the rhythym and look somewhere else for the lyrics. I dont 
know what the hell they're saying in that song. Have fun, go nuts and above all, dont drink and drive
you might spill your beer
Comments