Ramones - Wart Hog Chords & Tabs

 

Wart Hog Chords & Tabs

Ramones Chords & Tabs

Version: 1 Type: Tab 0 ratings
1 star 2 stars 3 stars 4 stars 5 stars
comments

Wart Hog Tab

Intro/Chorus:

1:------------------|
2:------------------|
3:--------------5/3-|
4:--3-3-3-3-3-3-5/3-|                     4x
5:--3-3-3-3-3-3-3/1-|
6:--1-1-1-1-1-1-----|

Verse:

1:---------------------------------------|
2:---------------------------------------|
3:--8------------------------------------|
4:--8-6/8-8-8-8--------------------------|                        4x
5:--6-6/8-8-8-8--------------------------|
6:----4/6-6-6-6--------------------------|

Bridge 1:

1:------------------|
2:------------------|
3:--3-3-6-68--8-8-8-|
4:--3-3-6-68--8-8-8-|              2x
5:--1-1-4-46--6-6-6-|
6:------------------|

Bridge 2:
[ Tab from: http://www.guitartabs.cc/tabs/r/ramones/wart_hog_tab.html ]
1:------------------|
2:------------------|
3:--8-8-------------|
4:--8-8-9-96--6-6-6-|                  4x
5:--6-6-9-96--6-6-6-|
6:------7-74--4-4-4-|

Outro:
        2x                       2x
1:------------------|------------------------|
2:------------------|------------------------|
3:--3-3-6-68--8-8-8-|--8-8-11-1113--13-13-13-|
4:--3-3-6-68--8-8-8-|--8-8-11-1111--13-13-13-|
5:--1-1-4-46--6-6-6-|--6-6- 9- 911--11-11-11-|
6:------------------|------------------------|


Intro
Verse
Bridge 1
Verse
Chorus
Verse
Bridge 2
Verse
Chorus
Outro
Chorus
Outro
Chorus

I hope thats correct please vote because that was very hard work for me
write to me when you have questions www.mavinfo@freenet.de
Enjoy!!!
Comments