Ramones - The Crusher Chords & Tabs

 

The Crusher Chords & Tabs

Ramones Chords & Tabs

Version: 2 Type: Bass Tab 0 ratings
1 star 2 stars 3 stars 4 stars 5 stars
comments

The Crusher Bass Tab

 song:"The Crusher"
 performed by:"Ramones"
 album:"Adios Amigos"
 tabbed by:Bruno Blackbock (blackbock@bol.com.br)
[ Tab from: http://www.guitartabs.cc/tabs/r/ramones/the_crusher_btab_ver_2.html ]
"Gabba,Gabba,Hey!!This is one of the best and funniest Ramones BASS lines--
It may look long or complicated but that's all the sme thing.In fact it's short 
and easy,but it's realy good!!"
             
"FEEL THE BASS!!"
                            
 Intro:                                       
 G|-------0-2-0---------------------|     "Or if you prefer,you can play this way"
 D|-2-2-2-------4-0-----------------|     "G|------------------------------------"
 A|-----------------4-4-4-3-0-0-0---|     "D|--2--2-2-2-5-4----------------------"
 E|---------------------------------|     "A|---------------5-4-3-3--3-3-0--0-0--"
                                          "E|------------------------------------"
 Riff 1(same as the intro):            
 G|-------0-2-0---------------------|  
 D|-2-2-2-------4-0-----------------|  
 A|-----------------4-4-4-3-0-0-0---|   
 E|---------------------------------|   
                                     
 Riff 2:                                      
 G|-2-2-2-2-2-2-2-2-5-5-5-5-0-0-0-0-|-2-2-2-2-2-2-2-2-5-5-5-5-5-5-5-5|
 D|---------------------------------|--------------------------------|
 A|---------------------------------|--------------------------------|
 E|---------------------------------|--------------------------------|
 
 Chorus:
 G|-------0-2-0---------------------|               Structure:   
 D|-2-2-2-------4-0---------5-5-5-5-|            Intro(2x)
 A|-----------------4-4-4-4---------|            Riff1(2x)
 E|---------------------------------|            Riff2(1x)
                                                Chorus(4x) 
 Solo:                                           Riff1(2x)
 G|-------0-2-0---------------------|            Riff2(1x)  
 D|-2-2-2-------4-0---------5-5-5-5-|           Chorus(4x) 
 A|-----------------4-4-4-4---------|            Solo (2x)
 E|---------------------------------|            Riff1(4x)
                                                 Riff2(1x)
                                                Chorus(5x)
Comments