Ramones - Suzy Is A Headbanger Chords & Tabs

 

Suzy Is A Headbanger Chords & Tabs

Ramones Chords & Tabs

Version: 1 Type: Tab 0 ratings
1 star 2 stars 3 stars 4 stars 5 stars
comments

Suzy Is A Headbanger Tab

This is a great song and once again there was no tab for it. So i went and learned how
to play this song and it is quite simple.

Here is the Intro

E|------------------------------------------|
B|------------------------------------------|
G|-----------5-5-5-5-5--7-7--5-5------------|
D|-5-5-5-5-5-5-5-5-5-5--7-7--5-5--5-5-5-5-5-|
A|-5-5-5-5-5-3-3-3-3-3--5-5--3-3--5-5-5-5-5-|
e|-3-3-3-3-3----------------------3-3-3-3-3-|

|------------------------------------------|
|------------------------------------------|
|-----------5-5-5-5-5--7-7--5-5------------|
|-5-5-5-5-5-5-5-5-5-5--7-7--5-5--5-5-5-5-5-|
|-5-5-5-5-5-3-3-3-3-3--5-5--3-3--5-5-5-5-5-|
|-3-3-3-3-3----------------------3-3-3-3-3-|

|---------------------|
|---------------------|
|-5/55-5/55-5/55-5555-|
|-5/55-5/55-5/55-5555-|
|-2/33-2/33-2/33-3333-|
|---------------------|

|---------------------|
|---------------------|
|-5/55-5/55-5/55-5555-|
|-5/55-5/55-5/55-5555-|
|-2/33-2/33-2/33-3333-|
|---------------------|

|---------------------|
|---------------------|
|-5/55-5/55-5/55-5555-|
|-5/55-5/55-5/55-5555-|
|-2/33-2/33-2/33-3333-|
|---------------------|

|------------------------------------------|
|------------------------------------------|
|-----------5-5-5-5-5--7-7--5-5------------|
|-5-5-5-5-5-5-5-5-5-5--7-7--5-5--5-5-5-5-5-|
|-5-5-5-5-5-3-3-3-3-3--5-5--3-3--5-5-5-5-5-|
|-3-3-3-3-3----------------------3-3-3-3-3-|
ooooooooohh eeeeeeee   do it one more time for me

|------------------------------------------|
|------------------------------------------|
|-----------5-5-5-5-5--7-7--5-5------------|
|-5-5-5-5-5-5-5-5-5-5--7-7--5-5--5-5-5-5-5-|
|-5-5-5-5-5-3-3-3-3-3--5-5--3-3--5-5-5-5-5-|
|-3-3-3-3-3----------------------3-3-3-3-3-|
ooooooooohh eeeeeeee   do it one more time for me

|---------------------|
|---------------------|
|-7-7--5-5------------|
|-7-7--5-5--5-5-5-5-5-|
|-5-5--3-3--5-5-5-5-5-|
|-----------3-3-3-3-3-|
can't stop stop that girl

|---------------------|
|---------------------|
|-7-7--5-5------------|
|-7-7--5-5--5-5-5-5-5-|
|-5-5--3-3--5-5-5-5-5-|
|-----------3-3-3-3-3-|
there she goes again

|---------------------|
|---------------------|
|-7-7--5-5------------|
|-7-7--5-5--5-5-5-5-5-|
|-5-5--3-3--5-5-5-5-5-|
|-----------3-3-3-3-3-|
I really really love to watch her

|---------------------|
|---------------------|
|-7-7--5-5------------|
|-7-7--5-5--5-5-5-5-5-|
|-5-5--3-3--5-5-5-5-5-|
|-----------3-3-3-3-3-|
watch her headbanging

|-------------------------------------|
|-------------------------------------|
|-5-5-5-5--5-5-5-5--------------------|
|-5-5-5-5--5-5-5-5--5-5-5-5--5-5-5-5--|
|-3-3-3-3--3-3-3-3--5-5-5-5--5-5-5-5--|
|-------------------3-3-3-3--3-3-3-3--|
Suzy is a headbanger her mother is a geek

|---------------------------------------|
|---------------------------------------|
|-5-5-5-5--5-5-5-5--7-7--5-5------------|
|-5-5-5-5--5-5-5-5--7-7--5-5--5-5-5-5-5-|
|-3-3-3-3--3-3-3-3--5-5--3-3--5-5-5-5-5-|
|-----------------------------3-3-3-3-3-|
do it one more time for me ooooooohh eeee

|---------------------|
|---------------------|
|-7-7--5-5------------|
|-7-7--5-5--5-5-5-5-5-|
|-5-5--3-3--5-5-5-5-5-|
|-----------3-3-3-3-3-|
oooooooohh eeee

|---------------------|
|---------------------|
|-5/55-5/55-5/55-5555-|
|-5/55-5/55-5/55-5555-|
|-2/33-2/33-2/33-3333-|
|---------------------|
[ Tab from: http://www.guitartabs.cc/tabs/r/ramones/suzy_is_a_headbanger_tab.html ]
|---------------------|
|---------------------|
|-5/55-5/55-5/55-5555-|
|-5/55-5/55-5/55-5555-|
|-2/33-2/33-2/33-3333-|
|---------------------|

|---------------------|
|---------------------|
|-5/55-5/55-5/55-5555-|
|-5/55-5/55-5/55-5555-|
|-2/33-2/33-2/33-3333-|
|---------------------|

|------------------------------------------|
|------------------------------------------|
|-----------5-5-5-5-5--7-7--5-5------------|
|-5-5-5-5-5-5-5-5-5-5--7-7--5-5--5-5-5-5-5-|
|-5-5-5-5-5-3-3-3-3-3--5-5--3-3--5-5-5-5-5-|
|-3-3-3-3-3----------------------3-3-3-3-3-|
ooooooooohh eeeeeeee   do it one more time for me

|------------------------------------------|
|------------------------------------------|
|-----------5-5-5-5-5--7-7--5-5------------|
|-5-5-5-5-5-5-5-5-5-5--7-7--5-5--5-5-5-5-5-|
|-5-5-5-5-5-3-3-3-3-3--5-5--3-3--5-5-5-5-5-|
|-3-3-3-3-3----------------------3-3-3-3-3-|
ooooooooohh eeeeeeee   do it one more time for me

|---------------------|
|---------------------|
|-7-7--5-5------------|
|-7-7--5-5--5-5-5-5-5-|
|-5-5--3-3--5-5-5-5-5-|
|-----------3-3-3-3-3-|
can't stop stop that girl

|---------------------|
|---------------------|
|-7-7--5-5------------|
|-7-7--5-5--5-5-5-5-5-|
|-5-5--3-3--5-5-5-5-5-|
|-----------3-3-3-3-3-|
there she goes again

|---------------------|
|---------------------|
|-7-7--5-5------------|
|-7-7--5-5--5-5-5-5-5-|
|-5-5--3-3--5-5-5-5-5-|
|-----------3-3-3-3-3-|
I really really love to watch her

|---------------------|
|---------------------|
|-7-7--5-5------------|
|-7-7--5-5--5-5-5-5-5-|
|-5-5--3-3--5-5-5-5-5-|
|-----------3-3-3-3-3-|
watch her headbanging

|-------------------------------------|
|-------------------------------------|
|-5-5-5-5--5-5-5-5--------------------|
|-5-5-5-5--5-5-5-5--5-5-5-5--5-5-5-5--|
|-3-3-3-3--3-3-3-3--5-5-5-5--5-5-5-5--|
|-------------------3-3-3-3--3-3-3-3--|
Suzy is a headbanger her mother is a geek

|---------------------------------------|
|---------------------------------------|
|-5-5-5-5--5-5-5-5--7-7--5-5------------|
|-5-5-5-5--5-5-5-5--7-7--5-5--5-5-5-5-5-|
|-3-3-3-3--3-3-3-3--5-5--3-3--5-5-5-5-5-|
|-----------------------------3-3-3-3-3-|
do it one more time for me ooooooohh eeee

|---------------------|
|---------------------|
|-7-7--5-5------------|
|-7-7--5-5--5-5-5-5-5-|
|-5-5--3-3--5-5-5-5-5-|
|-----------3-3-3-3-3-|
oooooooohh eeee

|---------------------|
|---------------------|
|-5/55-5/55-5/55-5555-|
|-5/55-5/55-5/55-5555-|
|-2/33-2/33-2/33-3333-|
|---------------------|

|---------------------|
|---------------------|
|-5/55-5/55-5/55-5555-|
|-5/55-5/55-5/55-5555-|
|-2/33-2/33-2/33-3333-|
|---------------------|

|-----------------------|
|-----------------------|
|-5/55-5/55-5/55-5555-5-|
|-5/55-5/55-5/55-5555-5-|
|-2/33-2/33-2/33-3333-3-|
|-----------------------|

then it goes headbanger, headbanger,etc.

|-----------------------------------|
|-----------------------------------|
|----------5-5-5-5--7-7-7-7-7-7-7-7-|
|-5-5-5-5--5-5-5-5--7-7-7-7-7-7-7-7-|
|-5-5-5-5--3-3-3-3--5-5-5-5-5-5-5-5-|
|-3-3-3-3---------------------------|
  head  -  bang  -   er

|-------------------|
|-------------------|
|--7-7-7-7-7-7-7-7--|
|--7-7-7-7-7-7-7-7--|
|--5-5-5-5-5-5-5-5--|
|-------------------|

|---------|
|---------|
|----7----|
|----7----|
|----5----|
|---------|
end on this note

that's it any comments number666blader@aol.com
PLEASE RATE
Comments