Ramones - Spiderman Chords & Tabs

 

Spiderman Chords & Tabs

Ramones Chords & Tabs

Version: 5 Type: Tab 0 ratings
1 star 2 stars 3 stars 4 stars 5 stars
comments

Spiderman Tab

-------------------------------------------------------------------------------
			     SPIDER-MAN - Ramones
-------------------------------------------------------------------------------
Tabbed by: Tyler Dorey and Andre DeCarufel
Email: dorey15@hotmail.com  andre_d_19@hotmail.com

Tuning:standard
Intro:

Spiderman, Spiderman Does whatever a spider can Spins a web any size Catches thieves 
like flies Look out, here comes the Spiderman
e|---------------------------------------------------------------------------|
B|---------------------------------------------------------------------------|
G|--------------------------------4-3----------------------------------------|
D|----4-3---------4-4-4-3---- 2-5-----5-2-----4-4-4-3------5-4-2-2-0-2-0-----|
A|2-5-----5-2-2-5---------5-2-------------2-5---------5-2---------------2----|
E|---------------------------------------------------------------------------|

Is he strong? Listen Bud He's got radioactive blood Can he swing from a thread? Take a 
overhead Hey, there! There goes the Spiderman
e|---------------------------------------------------------------------------|
B|---------------------------------------------------------------------------|
G|--------------------------------4-3----------------------------------------|
D|----4-3---------4-4-4-3-----2-5-----5-2-----4-3-----5-4-2-2-0-2-0----------|
A|2-5-----5-2-2-5---------5-2-------------2-5-----5-2---------------2--------|
E|---------------------------------------------------------------------------|
[ Tab from: http://www.guitartabs.cc/tabs/r/ramones/spiderman_tab_ver_5.html ]
In the chill of the night At the scene of a crime Like a streak of light He arrives just in time
e|---------------------------------------------------------------------------|
B|---------------------------------------------------------------------------|
G|---------------------------------------------------------------------------|
D|4-5-7-5-4-4-2-0-2-0-----4-5-7-5-4-2-0-2-0----------------------------------|
A|--------------------4-2-------------------4-4------------------------------|
E|---------------------------------------------------------------------------|

Spiderman, Spiderman Friendly neighborhood, Spiderman Wealth and fame, he ignores Action 
his reward Look out, here comes the Spiderman
e|--------------------------------------------------------------------------|
B|--------------------------------------------------------------------------|
G|--------------------------------4-3---------------------------------------|
D|----4-3---------4-4-4-3-----2-5-----5-2-----4-3-----5-4-2-2-0-2-0---------|
A|2-5-----5-2-2-5---------5-2-------------2-5-----5-2---------------2-------|
E|--------------------------------------------------------------------------|

Spiderman, Spiderman Friendly neighborhood, Spiderman Wealth and fame, he ignores Action 
his reward To him, life's a great big bang up
e|---------------------------------------------------------------------------|
B|---------------------------------------------------------------------------|
G|--------------------------------4-3----------------------------------------|
D|----4-3---------4-4-4-3-----2-5-----5-2-----4-3----5-4-2-2-0-2-0-----------|
A|2-5-----5-2-2-5---------5-2-------------2-5-----5-2--------------2---------|
E|---------------------------------------------------------------------------|

Wheneverthere's a hang up You'll find the Spiderman!
e|--------------------------------------------------------------------------|
B|--------------------------------------------------------------------------|
G|--------------------------------------------------------------------------|
D|2-2-0-2-0---2-2-0-2-0-----------------------------------------------------|
A|----------2-----------9---------------------------------------------------|
E|--------------------------------------------------------------------------|
Comments