Ramones - Rock And Roll High School Chords & Tabs

 

Rock And Roll High School Chords & Tabs

Ramones Chords & Tabs

Version: 1 Type: Tab 0 ratings
1 star 2 stars 3 stars 4 stars 5 stars
comments

Rock And Roll High School Tab

this is a great song so enjoy it

any shit DESTINYPUNK@HOTMAIL.COM

INTRO AND VERSE

6--2/3-3-3-3-3-3-3-3-----------------------------------
5--4/5-5-5-5-5-5-5-5------2/3-3-3-3-3-3----------------
4--4/5-5-5-5-5-5-5-5--x2--4/5-5-5-5-5-5--first part--x4
3-------------------------4/5-5-5-5-5-5--second part-x2   x2
2------------------------------------------------------
1------------------------------------------------------

CHORUS
[ Tab from: http://www.guitartabs.cc/tabs/r/ramones/rock_and_roll_high_school_tab.html ]
6--7-7-7-7-7-7-----------------
5--9-9-9-9-9-9--9-9-9-9-9-9-9--
4--9-9-9-9-9-9--1111111111111--
3---------------1111111111111--  x2
2------------------------------
1------------------------------

6-------5-5--1-1-1--5--3--3-3-3---
5--3-3--7-7--3-3-3--7--5--5-5-5---
4--5-5--7-7--3-3-3--7--5--5-5-5---
3--5-5----------------------------
2---------------------------------
1---------------------------------

and the repeat a verse but its kind like taped then another chorus and the repeat
the full song like i wanna be sedated two steps more like 7 is 9 5 is 7 you know
and the real finish its whit some kind of pitch and thats all.
Comments