Ramones - Ramones Chords & Tabs

 

Ramones Chords & Tabs

Ramones Chords & Tabs

Version: 1 Type: Tab 0 ratings
1 star 2 stars 3 stars 4 stars 5 stars
comments

Ramones Tab

any shit you know destinypunk@hotmail.com ho

r.a.m.o.n.e.s.

INTRO

6-----------
5--3--too---
4--5--many--
3--5--times-
2-----------
1-----------

VERSE

6---------------3-3-3-3--1-1-1-1--
5--3-3-3-3-3-3--5-5-5-5--3-3-3-3--
4--5-5-5-5-5-5--5-5-5-5--3-3-3-3--
3--5-5-5-5-5-5--------------------  x2
2---------------------------------
1---------------------------------

PRE CHORUS
[ Tab from: http://www.guitartabs.cc/tabs/r/ramones/ramones_tab.html ]
6--1-1-1-1-1-1--3-3-3-3-3-3--1-1-1-1-1-1-1--3-3-3-3-3-3-3-3--6-6-6-6-6-6-6--
5--3-3-3-3-3-3--5-5-5-5-5-5--3-3-3-3-3-3-3--5-5-5-5-5-5-5-5--8-8-8-8-8-8-8--
4--3-3-3-3-3-3--5-5-5-5-5-5--3-3-3-3-3-3-3--5-5-5-5-5-5-5-5--8-8-8-8-8-8-8--
3---------------------------------------------------------------------------
2---------------------------------------------------------------------------
1---------------------------------------------------------------------------

repet the verse another pre chorus and then this and then repeat a verse
a pre chorus and thats it.

INTERLUDE

6-------3-3-------5-5-------------
5--3-3--5-5--5-5--7-7-------------
4--5-5--5-5--7-7--7-7-------------
3--5-5-------7-7------------------
2---------------------------------
1---------------------------------
Comments